  0
SECTION
  2
HEADER
  9
$ACADVER
  1
AC1015
  9
$ACADMAINTVER
 70
     6
  9
$DWGCODEPAGE
  3
ANSI_1254
  9
$INSBASE
 10
0.0
 20
0.0
 30
0.0
  9
$EXTMIN
 10
0.0
 20
0.0
 30
0.0
  9
$EXTMAX
 10
279.4
 20
215.9
 30
0.0
  9
$LIMMIN
 10
0.0
 20
0.0
  9
$LIMMAX
 10
279.4
 20
215.9
  9
$ORTHOMODE
 70
     0
  9
$REGENMODE
 70
     1
  9
$FILLMODE
 70
     1
  9
$QTEXTMODE
 70
     0
  9
$MIRRTEXT
 70
     1
  9
$LTSCALE
 40
1.0
  9
$ATTMODE
 70
     1
  9
$TEXTSIZE
 40
3.5
  9
$TRACEWID
 40
1.0
  9
$TEXTSTYLE
  7
Standard
  9
$CLAYER
  8
0
  9
$CELTYPE
  6
ByLayer
  9
$CECOLOR
 62
   256
  9
$CELTSCALE
 40
1.0
  9
$DISPSILH
 70
     0
  9
$DIMSCALE
 40
1.0
  9
$DIMASZ
 40
3.5
  9
$DIMEXO
 40
1.0
  9
$DIMDLI
 40
3.75
  9
$DIMRND
 40
0.0
  9
$DIMDLE
 40
0.0
  9
$DIMEXE
 40
1.0
  9
$DIMTP
 40
0.0
  9
$DIMTM
 40
0.0
  9
$DIMTXT
 40
3.5
  9
$DIMCEN
 40
2.5
  9
$DIMTSZ
 40
0.0
  9
$DIMTOL
 70
     0
  9
$DIMLIM
 70
     0
  9
$DIMTIH
 70
     1
  9
$DIMTOH
 70
     1
  9
$DIMSE1
 70
     0
  9
$DIMSE2
 70
     0
  9
$DIMTAD
 70
     1
  9
$DIMZIN
 70
     0
  9
$DIMBLK
  1

  9
$DIMASO
 70
     1
  9
$DIMSHO
 70
     1
  9
$DIMPOST
  1

  9
$DIMAPOST
  1

  9
$DIMALT
 70
     0
  9
$DIMALTD
 70
     3
  9
$DIMALTF
 40
0.0393700787
  9
$DIMLFAC
 40
1.0
  9
$DIMTOFL
 70
     1
  9
$DIMTVP
 40
0.0
  9
$DIMTIX
 70
     0
  9
$DIMSOXD
 70
     0
  9
$DIMSAH
 70
     0
  9
$DIMBLK1
  1

  9
$DIMBLK2
  1

  9
$DIMSTYLE
  2
ISO-25
  9
$DIMCLRD
 70
     0
  9
$DIMCLRE
 70
     0
  9
$DIMCLRT
 70
     0
  9
$DIMTFAC
 40
1.0
  9
$DIMGAP
 40
1.524
  9
$DIMJUST
 70
     0
  9
$DIMSD1
 70
     0
  9
$DIMSD2
 70
     0
  9
$DIMTOLJ
 70
     0
  9
$DIMTZIN
 70
     0
  9
$DIMALTZ
 70
     0
  9
$DIMALTTZ
 70
     0
  9
$DIMUPT
 70
     0
  9
$DIMDEC
 70
     2
  9
$DIMTDEC
 70
     2
  9
$DIMALTU
 70
     2
  9
$DIMALTTD
 70
     3
  9
$DIMTXSTY
  7
Standard
  9
$DIMAUNIT
 70
     0
  9
$DIMADEC
 70
     2
  9
$DIMALTRND
 40
0.0
  9
$DIMAZIN
 70
     0
  9
$DIMDSEP
 70
    44
  9
$DIMATFIT
 70
     3
  9
$DIMFRAC
 70
     0
  9
$DIMLDRBLK
  1

  9
$DIMLUNIT
 70
     2
  9
$DIMLWD
 70
    -2
  9
$DIMLWE
 70
    -2
  9
$DIMTMOVE
 70
     0
  9
$LUNITS
 70
     2
  9
$LUPREC
 70
     2
  9
$SKETCHINC
 40
1.0
  9
$FILLETRAD
 40
10.0
  9
$AUNITS
 70
     0
  9
$AUPREC
 70
     2
  9
$MENU
  1
.
  9
$ELEVATION
 40
0.0
  9
$PELEVATION
 40
0.0
  9
$THICKNESS
 40
0.0
  9
$LIMCHECK
 70
     0
  9
$CHAMFERA
 40
0.0
  9
$CHAMFERB
 40
0.0
  9
$CHAMFERC
 40
0.0
  9
$CHAMFERD
 40
0.0
  9
$SKPOLY
 70
     0
  9
$TDCREATE
 40
2459741.601753148
  9
$TDUCREATE
 40
2459741.476753148
  9
$TDUPDATE
 40
2459741.601753322
  9
$TDUUPDATE
 40
2459741.476753322
  9
$TDINDWG
 40
0.0000000116
  9
$TDUSRTIMER
 40
0.0000000116
  9
$USRTIMER
 70
     1
  9
$ANGBASE
 50
0.0
  9
$ANGDIR
 70
     0
  9
$PDMODE
 70
     0
  9
$PDSIZE
 40
-1.0
  9
$PLINEWID
 40
0.0
  9
$SPLFRAME
 70
     0
  9
$SPLINETYPE
 70
     6
  9
$SPLINESEGS
 70
     8
  9
$HANDSEED
  5
128
  9
$SURFTAB1
 70
     6
  9
$SURFTAB2
 70
     6
  9
$SURFTYPE
 70
     6
  9
$SURFU
 70
     6
  9
$SURFV
 70
     6
  9
$UCSBASE
  2

  9
$UCSNAME
  2

  9
$UCSORG
 10
0.0
 20
0.0
 30
0.0
  9
$UCSXDIR
 10
1.0
 20
0.0
 30
0.0
  9
$UCSYDIR
 10
0.0
 20
1.0
 30
0.0
  9
$UCSORTHOREF
  2

  9
$UCSORTHOVIEW
 70
     0
  9
$UCSORGTOP
 10
0.0
 20
0.0
 30
0.0
  9
$UCSORGBOTTOM
 10
0.0
 20
0.0
 30
0.0
  9
$UCSORGLEFT
 10
0.0
 20
0.0
 30
0.0
  9
$UCSORGRIGHT
 10
0.0
 20
0.0
 30
0.0
  9
$UCSORGFRONT
 10
0.0
 20
0.0
 30
0.0
  9
$UCSORGBACK
 10
0.0
 20
0.0
 30
0.0
  9
$PUCSBASE
  2

  9
$PUCSNAME
  2

  9
$PUCSORG
 10
0.0
 20
0.0
 30
0.0
  9
$PUCSXDIR
 10
1.0
 20
0.0
 30
0.0
  9
$PUCSYDIR
 10
0.0
 20
1.0
 30
0.0
  9
$PUCSORTHOREF
  2

  9
$PUCSORTHOVIEW
 70
     0
  9
$PUCSORGTOP
 10
0.0
 20
0.0
 30
0.0
  9
$PUCSORGBOTTOM
 10
0.0
 20
0.0
 30
0.0
  9
$PUCSORGLEFT
 10
0.0
 20
0.0
 30
0.0
  9
$PUCSORGRIGHT
 10
0.0
 20
0.0
 30
0.0
  9
$PUCSORGFRONT
 10
0.0
 20
0.0
 30
0.0
  9
$PUCSORGBACK
 10
0.0
 20
0.0
 30
0.0
  9
$USERI1
 70
     0
  9
$USERI2
 70
     0
  9
$USERI3
 70
     0
  9
$USERI4
 70
     0
  9
$USERI5
 70
     0
  9
$USERR1
 40
0.0
  9
$USERR2
 40
0.0
  9
$USERR3
 40
0.0
  9
$USERR4
 40
0.0
  9
$USERR5
 40
0.0
  9
$WORLDVIEW
 70
     1
  9
$SHADEDGE
 70
     3
  9
$SHADEDIF
 70
    70
  9
$TILEMODE
 70
     1
  9
$MAXACTVP
 70
    64
  9
$PINSBASE
 10
0.0
 20
0.0
 30
0.0
  9
$PLIMCHECK
 70
     0
  9
$PEXTMIN
 10
1.0000000000E+20
 20
1.0000000000E+20
 30
1.0000000000E+20
  9
$PEXTMAX
 10
-1.0000000000E+20
 20
-1.0000000000E+20
 30
-1.0000000000E+20
  9
$PLIMMIN
 10
0.0
 20
0.0
  9
$PLIMMAX
 10
420.0
 20
297.0
  9
$UNITMODE
 70
     0
  9
$VISRETAIN
 70
     1
  9
$PLINEGEN
 70
     0
  9
$PSLTSCALE
 70
     1
  9
$TREEDEPTH
 70
  3020
  9
$CMLSTYLE
  2
Standard
  9
$CMLJUST
 70
     0
  9
$CMLSCALE
 40
20.0
  9
$PROXYGRAPHICS
 70
     1
  9
$MEASUREMENT
 70
     1
  9
$CELWEIGHT
370
    -1
  9
$ENDCAPS
280
     0
  9
$JOINSTYLE
280
     0
  9
$LWDISPLAY
290
     1
  9
$INSUNITS
 70
     4
  9
$HYPERLINKBASE
  1

  9
$STYLESHEET
  1

  9
$XEDIT
290
     1
  9
$CEPSNTYPE
380
     0
  9
$PSTYLEMODE
290
     1
  9
$FINGERPRINTGUID
  2
{a67e580a-f2f2-45b9-90de-2169b97455e7}
  9
$VERSIONGUID
  2
{FAEB1C32-E019-11D5-929B-00C0DF256EC4}
  9
$EXTNAMES
290
     1
  9
$PSVPSCALE
 40
0.0
  9
$OLESTARTUP
290
     0
  0
ENDSEC
  0
SECTION
  2
CLASSES
  0
CLASS
  1
ACDBDICTIONARYWDFLT
  2
AcDbDictionaryWithDefault
  3
ObjectDBX Classes
 90
        0
280
     0
281
     0
  0
CLASS
  1
VISUALSTYLE
  2
AcDbVisualStyle
  3
ObjectDBX Classes
 90
     4095
280
     0
281
     0
  0
CLASS
  1
MATERIAL
  2
AcDbMaterial
  3
ObjectDBX Classes
 90
     1153
280
     0
281
     0
  0
CLASS
  1
SCALE
  2
AcDbScale
  3
ObjectDBX Classes
 90
     1153
280
     0
281
     0
  0
CLASS
  1
TABLESTYLE
  2
AcDbTableStyle
  3
ObjectDBX Classes
 90
     4095
280
     0
281
     0
  0
CLASS
  1
MLEADERSTYLE
  2
AcDbMLeaderStyle
  3
ACDB_MLEADERSTYLE_CLASS
 90
     4095
280
     0
281
     0
  0
CLASS
  1
SUN
  2
AcDbSun
  3
SCENEOE
 90
     1153
280
     0
281
     0
  0
CLASS
  1
ACDBPLACEHOLDER
  2
AcDbPlaceHolder
  3
ObjectDBX Classes
 90
        0
280
     0
281
     0
  0
CLASS
  1
LAYOUT
  2
AcDbLayout
  3
ObjectDBX Classes
 90
        0
280
     0
281
     0
  0
ENDSEC
  0
SECTION
  2
TABLES
  0
TABLE
  2
VPORT
  5
8
330
0
100
AcDbSymbolTable
 70
     1
  0
VPORT
  5
29
330
8
100
AcDbSymbolTableRecord
100
AcDbViewportTableRecord
  2
*Active
 70
     0
 10
0.0
 20
0.0
 11
1.0
 21
1.0
 12
139.7
 22
107.95
 13
0.0
 23
0.0
 14
10.0
 24
10.0
 15
10.0
 25
10.0
 16
0.0
 26
0.0
 36
1.0
 17
0.0
 27
0.0
 37
0.0
 40
215.9
 41
1.2941176471
 42
50.0
 43
0.0
 44
0.0
 50
0.0
 51
0.0
 71
     0
 72
  2000
 73
     1
 74
     3
 75
     0
 76
     0
 77
     0
 78
     0
281
     0
 65
     1
110
0.0
120
0.0
130
0.0
111
1.0
121
0.0
131
0.0
112
0.0
122
1.0
132
0.0
 79
     0
146
0.0
  0
ENDTAB
  0
TABLE
  2
LTYPE
  5
5
330
0
100
AcDbSymbolTable
 70
     6
  0
LTYPE
  5
14
330
5
100
AcDbSymbolTableRecord
100
AcDbLinetypeTableRecord
  2
ByBlock
 70
     0
  3

 72
    65
 73
     0
 40
0.0
  0
LTYPE
  5
15
330
5
100
AcDbSymbolTableRecord
100
AcDbLinetypeTableRecord
  2
ByLayer
 70
     0
  3

 72
    65
 73
     0
 40
0.0
  0
LTYPE
  5
16
330
5
100
AcDbSymbolTableRecord
100
AcDbLinetypeTableRecord
  2
Continuous
 70
     0
  3
Solid line
 72
    65
 73
     0
 40
0.0
  0
LTYPE
  5
6E
330
5
100
AcDbSymbolTableRecord
100
AcDbLinetypeTableRecord
  2
HIDDEN
 70
     0
  3
Hidden __ __ __ __ __ __ __ __ __ __ __ __ __ __
 72
    65
 73
     2
 40
1.905
 49
1.27
 74
     0
 49
-0.635
 74
     0
  0
LTYPE
  5
6F
330
5
100
AcDbSymbolTableRecord
100
AcDbLinetypeTableRecord
  2
PHANTOM
 70
     0
  3
Phantom ______  __  __  ______  __  __  ______
 72
    65
 73
     6
 40
12.7
 49
6.35
 74
     0
 49
-1.27
 74
     0
 49
1.27
 74
     0
 49
-1.27
 74
     0
 49
1.27
 74
     0
 49
-1.27
 74
     0
  0
LTYPE
  5
70
330
5
100
AcDbSymbolTableRecord
100
AcDbLinetypeTableRecord
  2
CENTER
 70
     0
  3
Center ____ _ ____ _ ____ _ ____ _ ____ _ ____
 72
    65
 73
     4
 40
10.16
 49
6.35
 74
     0
 49
-1.27
 74
     0
 49
1.27
 74
     0
 49
-1.27
 74
     0
  0
LTYPE
  5
71
330
5
100
AcDbSymbolTableRecord
100
AcDbLinetypeTableRecord
  2
CENTERX2
 70
     0
  3
Center (2x) ________  __  ________  __  _____
 72
    65
 73
     4
 40
20.32
 49
12.7
 74
     0
 49
-2.54
 74
     0
 49
2.54
 74
     0
 49
-2.54
 74
     0
  0
LTYPE
  5
72
330
5
100
AcDbSymbolTableRecord
100
AcDbLinetypeTableRecord
  2
DOT2
 70
     0
  3
Dot (.5x) ........................................
 72
    65
 73
     2
 40
0.635
 49
0.0
 74
     0
 49
-0.635
 74
     0
  0
ENDTAB
  0
TABLE
  2
LAYER
  5
2
330
0
100
AcDbSymbolTable
 70
    17
  0
LAYER
  5
10
330
2
100
AcDbSymbolTableRecord
100
AcDbLayerTableRecord
  2
0
 70
     0
 62
     7
  6
Continuous
370
    -3
390
F
  0
LAYER
  5
73
330
2
100
AcDbSymbolTableRecord
100
AcDbLayerTableRecord
  2
FORMAT
 70
     0
 62
     7
  6
Continuous
370
    -3
390
F
  0
LAYER
  5
74
330
2
100
AcDbSymbolTableRecord
100
AcDbLayerTableRecord
  2
YARDIMCI_GEOMETRI
 70
     0
 62
    -6
  6
Continuous
290
     0
370
    -3
390
F
  0
LAYER
  5
75
330
2
100
AcDbSymbolTableRecord
100
AcDbLayerTableRecord
  2
SAYFA_CERCEVESI
 70
     0
 62
     7
  6
Continuous
370
    25
390
F
  0
LAYER
  5
76
330
2
100
AcDbSymbolTableRecord
100
AcDbLayerTableRecord
  2
ANTET
 70
     0
 62
     7
  6
Continuous
370
    -3
390
F
  0
LAYER
  5
77
330
2
100
AcDbSymbolTableRecord
100
AcDbLayerTableRecord
  2
OLCU
 70
     0
 62
   150
  6
Continuous
370
    -3
390
F
  0
LAYER
  5
78
330
2
100
AcDbSymbolTableRecord
100
AcDbLayerTableRecord
  2
METIN
 70
     0
 62
    96
  6
Continuous
370
    -3
390
F
  0
LAYER
  5
79
330
2
100
AcDbSymbolTableRecord
100
AcDbLayerTableRecord
  2
BALON
 70
     0
 62
     5
  6
Continuous
370
    -3
390
F
  0
LAYER
  5
7A
330
2
100
AcDbSymbolTableRecord
100
AcDbLayerTableRecord
  2
VURGU
 70
     0
 62
     7
  6
Continuous
370
    -3
390
F
  0
LAYER
  5
7B
330
2
100
AcDbSymbolTableRecord
100
AcDbLayerTableRecord
  2
SILIK
 70
     0
 62
     7
  6
Continuous
370
    -3
390
F
  0
LAYER
  5
7C
330
2
100
AcDbSymbolTableRecord
100
AcDbLayerTableRecord
  2
MODEL
 70
     0
 62
     7
  6
Continuous
370
    -3
390
F
  0
LAYER
  5
7D
330
2
100
AcDbSymbolTableRecord
100
AcDbLayerTableRecord
  2
DETAYLANDıRMA
 70
     0
 62
   190
  6
Continuous
370
    -3
390
F
  0
LAYER
  5
7E
330
2
100
AcDbSymbolTableRecord
100
AcDbLayerTableRecord
  2
TOLERANS
 70
     0
 62
   230
  6
Continuous
370
    -3
390
F
  0
LAYER
  5
7F
330
2
100
AcDbSymbolTableRecord
100
AcDbLayerTableRecord
  2
MERKEZ_CIZGILERI
 70
     0
 62
    30
  6
Continuous
370
    -3
390
F
  0
LAYER
  5
80
330
2
100
AcDbSymbolTableRecord
100
AcDbLayerTableRecord
  2
KESIT-DETAY_CIZGILERI
 70
     0
 62
     7
  6
Continuous
370
    -3
390
F
  0
LAYER
  5
81
330
2
100
AcDbSymbolTableRecord
100
AcDbLayerTableRecord
  2
\U+041E\U+0421\U+0415\U+0412\U+042B\U+0415
 70
     0
 62
     7
  6
Continuous
370
    -3
390
F
  0
LAYER
  5
82
330
2
100
AcDbSymbolTableRecord
100
AcDbLayerTableRecord
  2
\U+0412\U+041E\U+0414\U+042F\U+041D\U+042B\U+0415_\U+0417\U+041D\U+0410\U+041A\U+0418
 70
     0
 62
    11
  6
Continuous
370
    -3
390
F
  0
ENDTAB
  0
TABLE
  2
STYLE
  5
3
330
0
100
AcDbSymbolTable
 70
     1
  0
STYLE
  5
11
330
3
100
AcDbSymbolTableRecord
100
AcDbTextStyleTableRecord
  2
Standard
 70
     0
 40
0.0
 41
1.0
 50
0.0
 71
     0
 42
3.5
  3
txt
  4

  0
ENDTAB
  0
TABLE
  2
VIEW
  5
6
330
0
100
AcDbSymbolTable
 70
     0
  0
ENDTAB
  0
TABLE
  2
UCS
  5
7
330
0
100
AcDbSymbolTable
 70
     0
  0
ENDTAB
  0
TABLE
  2
APPID
  5
9
330
0
100
AcDbSymbolTable
 70
     1
  0
APPID
  5
12
330
9
100
AcDbSymbolTableRecord
100
AcDbRegAppTableRecord
  2
ACAD
 70
     0
  0
ENDTAB
  0
TABLE
  2
DIMSTYLE
  5
A
330
0
100
AcDbSymbolTable
 70
     1
100
AcDbDimStyleTable
  0
DIMSTYLE
105
27
330
A
100
AcDbSymbolTableRecord
100
AcDbDimStyleTableRecord
  2
ISO-25
 70
     0
 41
2.5
 42
0.625
 43
3.75
 44
1.25
 73
     0
 74
     0
 77
     1
 78
     8
140
2.5
141
2.5
143
0.0393700787
147
0.625
171
     3
172
     1
178
     0
271
     2
272
     2
274
     3
278
    44
283
     0
284
     8
340
11
  0
ENDTAB
  0
TABLE
  2
BLOCK_RECORD
  5
1
330
0
100
AcDbSymbolTable
 70
     4
  0
BLOCK_RECORD
  5
1F
330
1
100
AcDbSymbolTableRecord
100
AcDbBlockTableRecord
  2
*Model_Space
340
22
  0
BLOCK_RECORD
  5
1B
330
1
100
AcDbSymbolTableRecord
100
AcDbBlockTableRecord
  2
*Paper_Space
340
1E
  0
BLOCK_RECORD
  5
23
330
1
100
AcDbSymbolTableRecord
100
AcDbBlockTableRecord
  2
*Paper_Space0
340
26
  0
BLOCK_RECORD
  5
93
330
1
100
AcDbSymbolTableRecord
100
AcDbBlockTableRecord
  2
SW_CENTERMARKSYMBOL_0
340
0
102
{BLKREFS
331
9E
102
}
  0
BLOCK_RECORD
  5
E9
330
1
100
AcDbSymbolTableRecord
100
AcDbBlockTableRecord
  2
SW_CENTERMARKSYMBOL_1
340
0
102
{BLKREFS
331
F4
102
}
  0
BLOCK_RECORD
  5
F5
330
1
100
AcDbSymbolTableRecord
100
AcDbBlockTableRecord
  2
SW_CENTERMARKSYMBOL_2
340
0
102
{BLKREFS
331
100
102
}
  0
ENDTAB
  0
ENDSEC
  0
SECTION
  2
BLOCKS
  0
BLOCK
  5
20
330
1F
100
AcDbEntity
  8
0
100
AcDbBlockBegin
  2
*Model_Space
 70
     0
 10
0.0
 20
0.0
 30
0.0
  3
*Model_Space
  1

  0
ENDBLK
  5
21
330
1F
100
AcDbEntity
  8
0
100
AcDbBlockEnd
  0
BLOCK
  5
1C
330
1B
100
AcDbEntity
 67
     1
  8
0
100
AcDbBlockBegin
  2
*Paper_Space
 70
     0
 10
0.0
 20
0.0
 30
0.0
  3
*Paper_Space
  1

  0
ENDBLK
  5
1D
330
1B
100
AcDbEntity
 67
     1
  8
0
100
AcDbBlockEnd
  0
BLOCK
  5
24
330
23
100
AcDbEntity
  8
0
100
AcDbBlockBegin
  2
*Paper_Space0
 70
     0
 10
0.0
 20
0.0
 30
0.0
  3
*Paper_Space0
  1

  0
ENDBLK
  5
25
330
23
100
AcDbEntity
  8
0
100
AcDbBlockEnd
  0
BLOCK
  5
94
330
93
100
AcDbEntity
  8
0
100
AcDbBlockBegin
  2
SW_CENTERMARKSYMBOL_0
 70
     0
 10
0.0
 20
0.0
 30
0.0
  3
SW_CENTERMARKSYMBOL_0
  1

  0
LINE
  5
96
330
93
100
AcDbEntity
  8
FORMAT
 62
     0
100
AcDbLine
 10
0.0
 20
0.0
 30
0.0
 11
0.0
 21
2.5
 31
0.0
  0
LINE
  5
97
330
93
100
AcDbEntity
  8
FORMAT
 62
     0
100
AcDbLine
 10
0.0
 20
0.0
 30
0.0
 11
-2.5
 21
0.0
 31
0.0
  0
LINE
  5
98
330
93
100
AcDbEntity
  8
FORMAT
 62
     0
100
AcDbLine
 10
0.0
 20
0.0
 30
0.0
 11
0.0
 21
-2.5
 31
0.0
  0
LINE
  5
99
330
93
100
AcDbEntity
  8
FORMAT
 62
     0
100
AcDbLine
 10
0.0
 20
0.0
 30
0.0
 11
2.5
 21
0.0
 31
0.0
  0
LINE
  5
9A
330
93
100
AcDbEntity
  8
FORMAT
 62
     0
100
AcDbLine
 10
0.0
 20
5.0
 30
0.0
 11
0.0
 21
402.5
 31
0.0
  0
LINE
  5
9B
330
93
100
AcDbEntity
  8
FORMAT
 62
     0
100
AcDbLine
 10
-5.0
 20
0.0
 30
0.0
 11
-402.5
 21
0.0
 31
0.0
  0
LINE
  5
9C
330
93
100
AcDbEntity
  8
FORMAT
 62
     0
100
AcDbLine
 10
0.0
 20
-5.0
 30
0.0
 11
0.0
 21
-402.5
 31
0.0
  0
LINE
  5
9D
330
93
100
AcDbEntity
  8
FORMAT
 62
     0
100
AcDbLine
 10
5.0
 20
0.0
 30
0.0
 11
402.5
 21
0.0
 31
0.0
  0
ENDBLK
  5
95
330
93
100
AcDbEntity
  8
0
100
AcDbBlockEnd
  0
BLOCK
  5
EA
330
E9
100
AcDbEntity
  8
0
100
AcDbBlockBegin
  2
SW_CENTERMARKSYMBOL_1
 70
     0
 10
0.0
 20
0.0
 30
0.0
  3
SW_CENTERMARKSYMBOL_1
  1

  0
LINE
  5
EC
330
E9
100
AcDbEntity
  8
FORMAT
 62
     0
100
AcDbLine
 10
0.0
 20
0.0
 30
0.0
 11
0.0
 21
2.5
 31
0.0
  0
LINE
  5
ED
330
E9
100
AcDbEntity
  8
FORMAT
 62
     0
100
AcDbLine
 10
0.0
 20
0.0
 30
0.0
 11
-2.5
 21
0.0
 31
0.0
  0
LINE
  5
EE
330
E9
100
AcDbEntity
  8
FORMAT
 62
     0
100
AcDbLine
 10
0.0
 20
0.0
 30
0.0
 11
0.0
 21
-2.5
 31
0.0
  0
LINE
  5
EF
330
E9
100
AcDbEntity
  8
FORMAT
 62
     0
100
AcDbLine
 10
0.0
 20
0.0
 30
0.0
 11
2.5
 21
0.0
 31
0.0
  0
LINE
  5
F0
330
E9
100
AcDbEntity
  8
FORMAT
 62
     0
100
AcDbLine
 10
0.0
 20
5.0
 30
0.0
 11
0.0
 21
9.5
 31
0.0
  0
LINE
  5
F1
330
E9
100
AcDbEntity
  8
FORMAT
 62
     0
100
AcDbLine
 10
-5.0
 20
0.0
 30
0.0
 11
-9.5
 21
0.0
 31
0.0
  0
LINE
  5
F2
330
E9
100
AcDbEntity
  8
FORMAT
 62
     0
100
AcDbLine
 10
0.0
 20
-5.0
 30
0.0
 11
0.0
 21
-9.5
 31
0.0
  0
LINE
  5
F3
330
E9
100
AcDbEntity
  8
FORMAT
 62
     0
100
AcDbLine
 10
5.0
 20
0.0
 30
0.0
 11
9.5
 21
0.0
 31
0.0
  0
ENDBLK
  5
EB
330
E9
100
AcDbEntity
  8
0
100
AcDbBlockEnd
  0
BLOCK
  5
F6
330
F5
100
AcDbEntity
  8
0
100
AcDbBlockBegin
  2
SW_CENTERMARKSYMBOL_2
 70
     0
 10
0.0
 20
0.0
 30
0.0
  3
SW_CENTERMARKSYMBOL_2
  1

  0
LINE
  5
F8
330
F5
100
AcDbEntity
  8
FORMAT
 62
     0
100
AcDbLine
 10
0.0
 20
0.0
 30
0.0
 11
0.0
 21
2.5
 31
0.0
  0
LINE
  5
F9
330
F5
100
AcDbEntity
  8
FORMAT
 62
     0
100
AcDbLine
 10
0.0
 20
0.0
 30
0.0
 11
-2.5
 21
0.0
 31
0.0
  0
LINE
  5
FA
330
F5
100
AcDbEntity
  8
FORMAT
 62
     0
100
AcDbLine
 10
0.0
 20
0.0
 30
0.0
 11
0.0
 21
-2.5
 31
0.0
  0
LINE
  5
FB
330
F5
100
AcDbEntity
  8
FORMAT
 62
     0
100
AcDbLine
 10
0.0
 20
0.0
 30
0.0
 11
2.5
 21
0.0
 31
0.0
  0
LINE
  5
FC
330
F5
100
AcDbEntity
  8
FORMAT
 62
     0
100
AcDbLine
 10
0.0
 20
5.0
 30
0.0
 11
0.0
 21
9.5
 31
0.0
  0
LINE
  5
FD
330
F5
100
AcDbEntity
  8
FORMAT
 62
     0
100
AcDbLine
 10
-5.0
 20
0.0
 30
0.0
 11
-9.5
 21
0.0
 31
0.0
  0
LINE
  5
FE
330
F5
100
AcDbEntity
  8
FORMAT
 62
     0
100
AcDbLine
 10
0.0
 20
-5.0
 30
0.0
 11
0.0
 21
-9.5
 31
0.0
  0
LINE
  5
FF
330
F5
100
AcDbEntity
  8
FORMAT
 62
     0
100
AcDbLine
 10
5.0
 20
0.0
 30
0.0
 11
9.5
 21
0.0
 31
0.0
  0
ENDBLK
  5
F7
330
F5
100
AcDbEntity
  8
0
100
AcDbBlockEnd
  0
ENDSEC
  0
SECTION
  2
ENTITIES
  0
LINE
  5
83
330
1F
100
AcDbEntity
  8
0
  6
Continuous
 62
     7
370
    25
100
AcDbLine
 10
114.6521038696
 20
577.8227862273
 30
0.0
 11
114.6521038696
 21
584.9849769699
 31
0.0
  0
LINE
  5
84
330
1F
100
AcDbEntity
  8
0
  6
Continuous
 62
     7
370
    25
100
AcDbLine
 10
100.6521038696
 20
584.9849769699
 30
0.0
 11
100.6521038696
 21
576.7641102357
 31
0.0
  0
LINE
  5
85
330
1F
100
AcDbEntity
  8
0
  6
Continuous
 62
     7
370
    25
100
AcDbLine
 10
184.6521038696
 20
576.7617464539
 30
0.0
 11
184.6521038696
 21
584.9849769699
 31
0.0
  0
LINE
  5
86
330
1F
100
AcDbEntity
  8
0
  6
Continuous
 62
     7
370
    25
100
AcDbLine
 10
170.6521038696
 20
584.9849769699
 30
0.0
 11
170.6521038696
 21
577.8205214728
 31
0.0
  0
CIRCLE
  5
87
330
1F
100
AcDbEntity
  8
0
  6
Continuous
 62
     7
370
    25
100
AcDbCircle
 10
142.6521038696
 20
119.9849769699
 30
0.0
 40
458.5
  0
ARC
  5
88
330
1F
100
AcDbEntity
  8
0
  6
Continuous
 62
     7
370
    25
100
AcDbCircle
 10
142.6521038696
 20
119.9849769699
 30
0.0
 40
460.4999999999997
100
AcDbArc
 50
95.232945822
 51
180.0
  0
ARC
  5
89
330
1F
100
AcDbEntity
  8
0
  6
Continuous
 62
     7
370
    25
100
AcDbCircle
 10
142.6521038696
 20
119.9849769699
 30
0.0
 40
460.4999999999997
100
AcDbArc
 50
86.5140673262
 51
93.4859326738
  0
ARC
  5
8A
330
1F
100
AcDbEntity
  8
0
  6
Continuous
 62
     7
370
    25
100
AcDbCircle
 10
142.6521038696
 20
119.9849769699
 30
0.0
 40
460.4999999999997
100
AcDbArc
 50
180.0
 51
84.767054178
  0
SPLINE
  5
8B
330
1F
100
AcDbEntity
  8
0
  6
Continuous
 62
     7
370
    25
100
AcDbSpline
210
0.0
220
0.0
230
1.0
 70
     8
 71
     3
 72
    15
 73
    11
 74
     0
 42
0.00000001
 43
0.00000001
 40
0.0
 40
0.0
 40
0.0
 40
0.0
 40
0.133379567968596
 40
0.2667507638614919
 40
0.400321288123018
 40
0.5340637134428468
 40
0.6677558786308633
 40
0.8011253550211437
 40
0.9340117267683397
 40
1.0
 40
1.0
 40
1.0
 40
1.0
 10
113.3937264688609
 20
577.6831665433601
 30
0.0
 10
112.8790771139939
 20
577.6400338458192
 30
0.0
 10
111.8498107081833
 20
577.5537711581251
 30
0.0
 10
109.6589550731769
 20
577.384552301958
 30
0.0
 10
107.2861716996625
 20
577.2025728397383
 30
0.0
 10
104.9428961861604
 20
577.0237418446814
 30
0.0
 10
102.8982232446203
 20
576.8707237103
 30
0.0
 10
101.4340535294781
 20
576.7710344730046
 30
0.0
 10
100.6742135857778
 20
576.7319578445222
 30
0.0
 10
100.7316526104634
 20
576.7560997493921
 30
0.0
 10
100.7507113600366
 20
576.7641102356713
 30
0.0
  0
SPLINE
  5
8C
330
1F
100
AcDbEntity
  8
0
  6
Continuous
 62
     7
370
    25
100
AcDbSpline
210
0.0
220
0.0
230
1.0
 70
     8
 71
     3
 72
    10
 73
     6
 74
     0
 42
0.00000001
 43
0.00000001
 40
0.0
 40
0.0
 40
0.0
 40
0.0
 40
0.1031355175970737
 40
0.6554602211806608
 40
0.9999999999999999
 40
0.9999999999999999
 40
0.9999999999999999
 40
0.9999999999999999
 10
114.5921594004307
 20
577.8227862273269
 30
0.0
 10
114.6108679960979
 20
577.821618440811
 30
0.0
 10
114.7297672903441
 20
577.8141967724488
 30
0.0
 10
114.2859277867857
 20
577.7641677351801
 30
0.0
 10
113.641348338982
 20
577.7056476428581
 30
0.0
 10
113.3937264688609
 20
577.6831665433601
 30
0.0
  0
SPLINE
  5
8D
330
1F
100
AcDbEntity
  8
0
  6
Continuous
 62
     7
370
    25
100
AcDbSpline
210
0.0
220
0.0
230
1.0
 70
     8
 71
     3
 72
    14
 73
    10
 74
     0
 42
0.00000001
 43
0.00000001
 40
0.0
 40
0.0
 40
0.0
 40
0.0
 40
0.155349641707533
 40
0.3106895416259199
 40
0.4662257466049208
 40
0.6217304505746469
 40
0.7769838023322643
 40
0.9319063797732242
 40
1.0
 40
1.0
 40
1.0
 40
1.0
 10
181.6423251956527
 20
576.928371301727
 30
0.0
 10
180.949827201207
 20
576.9802722548126
 30
0.0
 10
179.5648746380318
 20
577.084070906337
 30
0.0
 10
177.1502050487406
 20
577.2691162001595
 30
0.0
 10
174.8266670305499
 20
577.4474397750109
 30
0.0
 10
172.8014400661153
 20
577.6062763394591
 30
0.0
 10
171.3747170215871
 20
577.728479716449
 30
0.0
 10
170.654298837143
 20
577.8027317325336
 30
0.0
 10
170.7275846178915
 20
577.816360267161
 30
0.0
 10
170.7499609931257
 20
577.8205214728083
 30
0.0
  0
SPLINE
  5
8E
330
1F
100
AcDbEntity
  8
0
  6
Continuous
 62
     7
370
    25
100
AcDbSpline
210
0.0
220
0.0
230
1.0
 70
     8
 71
     3
 72
    11
 73
     7
 74
     0
 42
0.00000001
 43
0.00000001
 40
0.0
 40
0.0
 40
0.0
 40
0.0
 40
0.0865737716668294
 40
0.4349810533033272
 40
0.7831305047359597
 40
0.9999999999999999
 40
0.9999999999999999
 40
0.9999999999999999
 40
0.9999999999999999
 10
184.5782125434219
 20
576.7617464538965
 30
0.0
 10
184.6004585098057
 20
576.7566112477961
 30
0.0
 10
184.7122310906123
 20
576.7308099304282
 30
0.0
 10
184.1212301040341
 20
576.7569585868457
 30
0.0
 10
183.025466466065
 20
576.8270700657533
 30
0.0
 10
182.0259619564686
 20
576.900273753872
 30
0.0
 10
181.6423251956527
 20
576.928371301727
 30
0.0
  0
CIRCLE
  5
8F
330
1F
100
AcDbEntity
  8
0
  6
Continuous
 62
     7
370
    25
100
AcDbCircle
 10
142.6521038696
 20
119.9849769699
 30
0.0
 40
400.0000000000001
  0
LINE
  5
90
330
1F
100
AcDbEntity
  8
0
  6
Continuous
 62
     7
370
    25
100
AcDbLine
 10
107.6521038696
 20
584.9849769699
 30
0.0
 11
100.6521038696
 21
584.9849769699
 31
0.0
  0
LINE
  5
91
330
1F
100
AcDbEntity
  8
0
  6
Continuous
 62
     7
370
    25
100
AcDbLine
 10
114.6521038696
 20
584.9849769699
 30
0.0
 11
107.6521038696
 21
584.9849769699
 31
0.0
  0
LINE
  5
92
330
1F
100
AcDbEntity
  8
0
  6
Continuous
 62
     7
370
    25
100
AcDbLine
 10
184.6521038696
 20
584.9849769699
 30
0.0
 11
170.6521038696
 21
584.9849769699
 31
0.0
  0
INSERT
  5
9E
330
1F
100
AcDbEntity
  8
FORMAT
 62
     7
100
AcDbBlockReference
  2
SW_CENTERMARKSYMBOL_0
 10
142.6521038696
 20
119.9849769699
 30
0.0
  0
ARC
  5
9F
330
1F
100
AcDbEntity
  8
0
  6
Continuous
 62
     7
370
    25
100
AcDbCircle
 10
1263.8611357223
 20
-13522.0775230302
 30
0.0
 40
14102.56250000012
100
AcDbArc
 50
90.0
 51
90.8877555943
  0
LINE
  5
A0
330
1F
100
AcDbEntity
  8
0
  6
Continuous
 62
     7
370
    25
100
AcDbLine
 10
1031.3611357223
 20
578.5683067327
 30
0.0
 11
1026.3611357223
 21
578.4849769699
 31
0.0
  0
ARC
  5
A1
330
1F
100
AcDbEntity
  8
0
  6
Continuous
 62
     7
370
    25
100
AcDbCircle
 10
1263.8611357223
 20
13762.04747697
 30
0.0
 40
14102.56250000012
100
AcDbArc
 50
269.0350412596
 51
270.0
  0
LINE
  5
A2
330
1F
100
AcDbEntity
  8
0
  6
Continuous
 62
     7
370
    25
100
AcDbLine
 10
1263.8611357223
 20
-340.5150230301
 30
0.0
 11
1308.8611357223
 21
-340.5150230301
 31
0.0
  0
LINE
  5
A3
330
1F
100
AcDbEntity
  8
0
  6
Continuous
 62
     7
370
    25
100
AcDbLine
 10
1308.8611357223
 20
580.4849769699
 30
0.0
 11
1263.8611357223
 21
580.4849769699
 31
0.0
  0
LINE
  5
A4
330
1F
100
AcDbEntity
  8
0
  6
Continuous
 62
     7
370
    25
100
AcDbLine
 10
1546.3611357223
 20
578.4849769699
 30
0.0
 11
1541.3611357223
 21
578.5683067327
 31
0.0
  0
ARC
  5
A5
330
1F
100
AcDbEntity
  8
0
  6
Continuous
 62
     7
370
    25
100
AcDbCircle
 10
1308.8611357223
 20
-13522.0775230302
 30
0.0
 40
14102.56250000012
100
AcDbArc
 50
89.1122444057
 51
90.0
  0
ARC
  5
A6
330
1F
100
AcDbEntity
  8
0
  6
Continuous
 62
     7
370
    25
100
AcDbCircle
 10
1308.8611357223
 20
13762.04747697
 30
0.0
 40
14102.56250000012
100
AcDbArc
 50
270.0
 51
270.9649587404
  0
LINE
  5
A7
330
1F
100
AcDbEntity
  8
0
  6
Continuous
 62
     7
370
    25
100
AcDbLine
 10
1045.3611357223
 20
577.4536626164
 30
0.0
 11
1045.3611357223
 21
584.9849769699
 31
0.0
  0
LINE
  5
A8
330
1F
100
AcDbEntity
  8
0
  6
Continuous
 62
     7
370
    25
100
AcDbLine
 10
1031.3611357223
 20
584.9849769699
 30
0.0
 11
1031.3611357223
 21
577.2303124265
 31
0.0
  0
LINE
  5
A9
330
1F
100
AcDbEntity
  8
0
  6
Continuous
 62
     7
370
    25
100
AcDbLine
 10
1541.3611357223
 20
577.2303310844
 30
0.0
 11
1541.3611357223
 21
584.9849769699
 31
0.0
  0
LINE
  5
AA
330
1F
100
AcDbEntity
  8
0
  6
Continuous
 62
     7
370
    25
100
AcDbLine
 10
1527.3611357223
 20
584.9849769699
 30
0.0
 11
1527.3611357223
 21
577.4531437323
 31
0.0
  0
LINE
  5
AB
330
1F
100
AcDbEntity
  8
0
  6
Continuous
 62
     7
370
    25
100
AcDbLine
 10
1026.3611357223
 20
119.9849769699
 30
0.0
 11
1026.3611357223
 21
578.4849769699
 31
0.0
  0
LINE
  5
AC
330
1F
100
AcDbEntity
  8
0
  6
Continuous
 62
     7
370
    25
100
AcDbLine
 10
1026.3611357223
 20
-338.5150230301
 30
0.0
 11
1026.3611357223
 21
119.9849769699
 31
0.0
  0
SPLINE
  5
AD
330
1F
100
AcDbEntity
  8
0
  6
Continuous
 62
     7
370
    25
100
AcDbSpline
210
0.0
220
0.0
230
1.0
 70
     8
 71
     3
 72
    18
 73
    14
 74
     0
 42
0.00000001
 43
0.00000001
 40
0.0
 40
0.0
 40
0.0
 40
0.0
 40
0.0120701069282602
 40
0.1197422676003297
 40
0.2276434797766042
 40
0.3355281316124579
 40
0.4431076074651664
 40
0.5502441484512766
 40
0.6570636549244738
 40
0.7638784061024324
 40
0.8709807236632959
 40
0.9784723248143534
 40
1.0
 40
1.0
 40
1.0
 40
1.0
 10
1045.321745371373
 20
577.4536626164215
 30
0.0
 10
1045.334525424936
 20
577.4473834705178
 30
0.0
 10
1045.46131076352
 20
577.3850908020637
 30
0.0
 10
1044.946857023571
 20
577.241587085929
 30
0.0
 10
1043.765933832258
 20
577.0502961839776
 30
0.0
 10
1041.891637590121
 20
576.8848485572103
 30
0.0
 10
1039.640799227991
 20
576.7739780779692
 30
0.0
 10
1037.244154749781
 20
576.7330093419612
 30
0.0
 10
1034.98515796922
 20
576.7663961174383
 30
0.0
 10
1033.087671618648
 20
576.86642125174
 30
0.0
 10
1031.846922380634
 20
577.0159955522831
 30
0.0
 10
1031.286382597671
 20
577.1465960031047
 30
0.0
 10
1031.404998403264
 20
577.2183412775971
 30
0.0
 10
1031.424790194127
 20
577.2303124264769
 30
0.0
  0
LINE
  5
AE
330
1F
100
AcDbEntity
  8
0
  6
Continuous
 62
     7
370
    25
100
AcDbLine
 10
1546.3611357223
 20
119.9849769699
 30
0.0
 11
1546.3611357223
 21
578.4849769699
 31
0.0
  0
LINE
  5
AF
330
1F
100
AcDbEntity
  8
0
  6
Continuous
 62
     7
370
    25
100
AcDbLine
 10
1546.3611357223
 20
-338.5150230301
 30
0.0
 11
1546.3611357223
 21
119.9849769699
 31
0.0
  0
SPLINE
  5
B0
330
1F
100
AcDbEntity
  8
0
  6
Continuous
 62
     7
370
    25
100
AcDbSpline
210
0.0
220
0.0
230
1.0
 70
     8
 71
     3
 72
    18
 73
    14
 74
     0
 42
0.00000001
 43
0.00000001
 40
0.0
 40
0.0
 40
0.0
 40
0.0
 40
0.016292150596347
 40
0.124121228435719
 40
0.2319097843266334
 40
0.3394381741901577
 40
0.446577063653647
 40
0.5534083329775069
 40
0.6602148071343843
 40
0.767314083722487
 40
0.8748529413864038
 40
0.9827191526108143
 40
1.0
 40
1.0
 40
1.0
 40
1.0
 10
1541.310128276113
 20
577.2303310843738
 30
0.0
 10
1541.326409595704
 20
577.2212879244189
 30
0.0
 10
1541.450448308473
 20
577.152392899423
 30
0.0
 10
1540.914019200909
 20
577.0234075327231
 30
0.0
 10
1539.700150590783
 20
576.8714050173571
 30
0.0
 10
1537.808801535093
 20
576.768652922333
 30
0.0
 10
1535.552930287854
 20
576.7329366987263
 30
0.0
 10
1533.162053446345
 20
576.7715022301757
 30
0.0
 10
1530.914676891869
 20
576.8794304262543
 30
0.0
 10
1529.031304988481
 20
577.0419438535996
 30
0.0
 10
1527.815681250098
 20
577.2321030005603
 30
0.0
 10
1527.274180952308
 20
577.378584401058
 30
0.0
 10
1527.397760897994
 20
577.4440974122462
 30
0.0
 10
1527.414825351649
 20
577.4531437323185
 30
0.0
  0
LINE
  5
B1
330
1F
100
AcDbEntity
  8
0
  6
Continuous
 62
     7
370
    25
100
AcDbLine
 10
1045.3611357223
 20
584.9849769699
 30
0.0
 11
1031.3611357223
 21
584.9849769699
 31
0.0
  0
LINE
  5
B2
330
1F
100
AcDbEntity
  8
0
  6
Continuous
 62
     7
370
    25
100
AcDbLine
 10
1541.3611357223
 20
584.9849769699
 30
0.0
 11
1527.3611357223
 21
584.9849769699
 31
0.0
  0
LINE
  5
B3
330
1F
100
AcDbEntity
  8
0
  6
Continuous
 62
     1
370
    25
100
AcDbLine
 10
1263.8611357223
 20
119.9849769699
 30
0.0
 11
1263.8611357223
 21
580.4849769699
 31
0.0
  0
LINE
  5
B4
330
1F
100
AcDbEntity
  8
0
  6
Continuous
 62
     1
370
    25
100
AcDbLine
 10
1263.8611357223
 20
-340.5150230301
 30
0.0
 11
1263.8611357223
 21
119.9849769699
 31
0.0
  0
LINE
  5
B5
330
1F
100
AcDbEntity
  8
0
  6
Continuous
 62
     1
370
    25
100
AcDbLine
 10
1308.8611357223
 20
119.9849769699
 30
0.0
 11
1308.8611357223
 21
580.4849769699
 31
0.0
  0
LINE
  5
B6
330
1F
100
AcDbEntity
  8
0
  6
Continuous
 62
     1
370
    25
100
AcDbLine
 10
1308.8611357223
 20
-340.5150230301
 30
0.0
 11
1308.8611357223
 21
119.9849769699
 31
0.0
  0
ARC
  5
B7
330
1F
100
AcDbEntity
  8
0
  6
Continuous
 62
     7
370
    25
100
AcDbCircle
 10
13784.7146038697
 20
1101.7118857799
 30
0.0
 40
14102.56250000012
100
AcDbArc
 50
180.0
 51
180.9649587404
  0
ARC
  5
B8
330
1F
100
AcDbEntity
  8
0
  6
Continuous
 62
     7
370
    25
100
AcDbCircle
 10
-13499.4103961306
 20
1101.7118857799
 30
0.0
 40
14102.56250000012
100
AcDbArc
 50
359.0350412596
 51
0.0
  0
LINE
  5
B9
330
1F
100
AcDbEntity
  8
0
  6
Continuous
 62
     7
370
    25
100
AcDbLine
 10
603.1521038696
 20
1101.7118857799
 30
0.0
 11
603.1521038696
 21
1146.7118857799
 31
0.0
  0
LINE
  5
BA
330
1F
100
AcDbEntity
  8
0
  6
Continuous
 62
     7
370
    25
100
AcDbLine
 10
-317.8478961304
 20
1146.7118857799
 30
0.0
 11
-317.8478961304
 21
1101.7118857799
 31
0.0
  0
ARC
  5
BB
330
1F
100
AcDbEntity
  8
0
  6
Continuous
 62
     7
370
    25
100
AcDbCircle
 10
13784.7146038697
 20
1146.7118857799
 30
0.0
 40
14102.56250000012
100
AcDbArc
 50
179.0350412596
 51
180.0
  0
ARC
  5
BC
330
1F
100
AcDbEntity
  8
0
  6
Continuous
 62
     7
370
    25
100
AcDbCircle
 10
-13499.4103961306
 20
1146.7118857799
 30
0.0
 40
14102.56250000012
100
AcDbArc
 50
0.0
 51
0.9649587404
  0
LINE
  5
BD
330
1F
100
AcDbEntity
  8
0
  6
Continuous
 62
     7
370
    25
100
AcDbLine
 10
601.1521038696
 20
864.2118857799
 30
0.0
 11
-315.8478961304
 21
864.2118857799
 31
0.0
  0
LINE
  5
BE
330
1F
100
AcDbEntity
  8
0
  6
Continuous
 62
     7
370
    25
100
AcDbLine
 10
601.1521038696
 20
1384.2118857799
 30
0.0
 11
-315.8478961304
 21
1384.2118857799
 31
0.0
  0
LINE
  5
BF
330
1F
100
AcDbEntity
  8
0
  6
Continuous
 62
     1
370
    25
100
AcDbLine
 10
603.1521038696
 20
1101.7118857799
 30
0.0
 11
-317.8478961304
 21
1101.7118857799
 31
0.0
  0
LINE
  5
C0
330
1F
100
AcDbEntity
  8
0
  6
Continuous
 62
     1
370
    25
100
AcDbLine
 10
603.1521038696
 20
1146.7118857799
 30
0.0
 11
-317.8478961304
 21
1146.7118857799
 31
0.0
  0
ARC
  5
C1
330
1F
100
AcDbEntity
  8
0
  6
Continuous
 62
     7
370
    25
100
AcDbCircle
 10
-1029.2767889204
 20
13762.04747697
 30
0.0
 40
14102.56250000012
100
AcDbArc
 50
270.0
 51
270.9649587404
  0
LINE
  5
C2
330
1F
100
AcDbEntity
  8
0
  6
Continuous
 62
     7
370
    25
100
AcDbLine
 10
-791.7767889204
 20
578.4849769699
 30
0.0
 11
-796.7767889204
 21
578.5683067327
 31
0.0
  0
ARC
  5
C3
330
1F
100
AcDbEntity
  8
0
  6
Continuous
 62
     7
370
    25
100
AcDbCircle
 10
-1029.2767889204
 20
-13522.0775230302
 30
0.0
 40
14102.56250000012
100
AcDbArc
 50
89.1122444057
 51
90.0
  0
LINE
  5
C4
330
1F
100
AcDbEntity
  8
0
  6
Continuous
 62
     7
370
    25
100
AcDbLine
 10
-1029.2767889204
 20
580.4849769699
 30
0.0
 11
-1074.2767889204
 21
580.4849769699
 31
0.0
  0
LINE
  5
C5
330
1F
100
AcDbEntity
  8
0
  6
Continuous
 62
     7
370
    25
100
AcDbLine
 10
-1074.2767889204
 20
-340.5150230301
 30
0.0
 11
-1029.2767889204
 21
-340.5150230301
 31
0.0
  0
ARC
  5
C6
330
1F
100
AcDbEntity
  8
0
  6
Continuous
 62
     7
370
    25
100
AcDbCircle
 10
-1074.2767889204
 20
13762.04747697
 30
0.0
 40
14102.56250000012
100
AcDbArc
 50
269.0350412596
 51
270.0
  0
ARC
  5
C7
330
1F
100
AcDbEntity
  8
0
  6
Continuous
 62
     7
370
    25
100
AcDbCircle
 10
-1074.2767889204
 20
-13522.0775230302
 30
0.0
 40
14102.56250000012
100
AcDbArc
 50
90.0
 51
90.8877555943
  0
LINE
  5
C8
330
1F
100
AcDbEntity
  8
0
  6
Continuous
 62
     7
370
    25
100
AcDbLine
 10
-1306.7767889204
 20
578.5683067327
 30
0.0
 11
-1311.7767889204
 21
578.4849769699
 31
0.0
  0
LINE
  5
C9
330
1F
100
AcDbEntity
  8
0
  6
Continuous
 62
     7
370
    25
100
AcDbLine
 10
-796.7767889204
 20
577.2312067844
 30
0.0
 11
-796.7767889204
 21
584.9849769699
 31
0.0
  0
LINE
  5
CA
330
1F
100
AcDbEntity
  8
0
  6
Continuous
 62
     7
370
    25
100
AcDbLine
 10
-810.7767889204
 20
584.9849769699
 30
0.0
 11
-810.7767889204
 21
577.4539081172
 31
0.0
  0
LINE
  5
CB
330
1F
100
AcDbEntity
  8
0
  6
Continuous
 62
     7
370
    25
100
AcDbLine
 10
-1292.7767889204
 20
577.4545074975
 30
0.0
 11
-1292.7767889204
 21
584.9849769699
 31
0.0
  0
LINE
  5
CC
330
1F
100
AcDbEntity
  8
0
  6
Continuous
 62
     7
370
    25
100
AcDbLine
 10
-1306.7767889204
 20
584.9849769699
 30
0.0
 11
-1306.7767889204
 21
577.2313029543
 31
0.0
  0
LINE
  5
CD
330
1F
100
AcDbEntity
  8
0
  6
Continuous
 62
     7
370
    25
100
AcDbLine
 10
-791.7767889204
 20
578.4849769699
 30
0.0
 11
-791.7767889204
 21
-338.5150230301
 31
0.0
  0
SPLINE
  5
CE
330
1F
100
AcDbEntity
  8
0
  6
Continuous
 62
     7
370
    25
100
AcDbSpline
210
0.0
220
0.0
230
1.0
 70
     8
 71
     3
 72
     9
 73
     5
 74
     0
 42
0.00000001
 43
0.00000001
 40
0.0
 40
0.0
 40
0.0
 40
0.0
 40
0.5509632149705008
 40
1.0
 40
1.0
 40
1.0
 40
1.0
 10
-809.4981997390158
 20
577.1088683790925
 30
0.0
 10
-809.9065352469794
 20
577.1735653623957
 30
0.0
 10
-810.6476655019009
 20
577.2909905943268
 30
0.0
 10
-810.6952623389504
 20
577.4034221933866
 30
0.0
 10
-810.7166350696367
 20
577.4539081171641
 30
0.0
  0
SPLINE
  5
CF
330
1F
100
AcDbEntity
  8
0
  6
Continuous
 62
     7
370
    25
100
AcDbSpline
210
0.0
220
0.0
230
1.0
 70
     8
 71
     3
 72
    15
 73
    11
 74
     0
 42
0.00000001
 43
0.00000001
 40
0.0
 40
0.0
 40
0.0
 40
0.0
 40
0.1172181694999339
 40
0.2512080421928859
 40
0.3849472575976757
 40
0.5182252945876625
 40
0.6510631186351029
 40
0.783756645993378
 40
0.9167159652313714
 40
1.0
 40
1.0
 40
1.0
 40
1.0
 10
-796.8203198359174
 20
577.2312067843562
 30
0.0
 10
-796.8619271122438
 20
577.1782571671462
 30
0.0
 10
-796.9510948792506
 20
577.0647818439011
 30
0.0
 10
-798.0410438003893
 20
576.9096594690136
 30
0.0
 10
-799.7522676004467
 20
576.7910608466009
 30
0.0
 10
-801.9340882542787
 20
576.7355264623665
 30
0.0
 10
-804.3148639072126
 20
576.7533248553965
 30
0.0
 10
-806.6229755947019
 20
576.8433979790015
 30
0.0
 10
-808.3954159986341
 20
576.9731419666086
 30
0.0
 10
-809.1915690841306
 20
577.0711294487644
 30
0.0
 10
-809.4981997390158
 20
577.1088683790925
 30
0.0
  0
LINE
  5
D0
330
1F
100
AcDbEntity
  8
0
  6
Continuous
 62
     7
370
    25
100
AcDbLine
 10
-1311.7767889204
 20
578.4849769699
 30
0.0
 11
-1311.7767889204
 21
-338.5150230301
 31
0.0
  0
SPLINE
  5
D1
330
1F
100
AcDbEntity
  8
0
  6
Continuous
 62
     7
370
    25
100
AcDbSpline
210
0.0
220
0.0
230
1.0
 70
     8
 71
     3
 72
     9
 73
     5
 74
     0
 42
0.00000001
 43
0.00000001
 40
0.0
 40
0.0
 40
0.0
 40
0.0
 40
0.5569804074265462
 40
1.0
 40
1.0
 40
1.0
 40
1.0
 10
-1305.52814821787
 20
576.9283713017271
 30
0.0
 10
-1305.931713211541
 20
576.980191786145
 30
0.0
 10
-1306.656271900303
 20
577.0732300397835
 30
0.0
 10
-1306.694952716332
 20
577.1827731917765
 30
0.0
 10
-1306.71208907569
 20
577.2313029543417
 30
0.0
  0
SPLINE
  5
D2
330
1F
100
AcDbEntity
  8
0
  6
Continuous
 62
     7
370
    25
100
AcDbSpline
210
0.0
220
0.0
230
1.0
 70
     8
 71
     3
 72
    15
 73
    11
 74
     0
 42
0.00000001
 43
0.00000001
 40
0.0
 40
0.0
 40
0.0
 40
0.0
 40
0.1193536188231686
 40
0.2529863343940564
 40
0.3866771266496686
 40
0.5200603150702476
 40
0.6529057174456872
 40
0.7852975534859038
 40
0.9175914162176522
 40
1.0
 40
1.0
 40
1.0
 40
1.0
 10
-1292.813901372642
 20
577.4545074975232
 30
0.0
 10
-1292.860700475283
 20
577.3989809974878
 30
0.0
 10
-1292.959897580045
 20
577.2812849791835
 30
0.0
 10
-1294.067277278728
 20
577.0902656983783
 30
0.0
 10
-1295.791171351142
 20
576.9172689956748
 30
0.0
 10
-1297.984468412408
 20
576.7926146318936
 30
0.0
 10
-1300.372838404072
 20
576.7354800998835
 30
0.0
 10
-1302.679326481606
 20
576.7533230375348
 30
0.0
 10
-1304.440209582987
 20
576.8275922131403
 30
0.0
 10
-1305.226390716462
 20
576.9004185799549
 30
0.0
 10
-1305.52814821787
 20
576.928371301727
 30
0.0
  0
LINE
  5
D3
330
1F
100
AcDbEntity
  8
0
  6
Continuous
 62
     7
370
    25
100
AcDbLine
 10
-796.7767889204
 20
584.9849769699
 30
0.0
 11
-810.7767889204
 21
584.9849769699
 31
0.0
  0
LINE
  5
D4
330
1F
100
AcDbEntity
  8
0
  6
Continuous
 62
     7
370
    25
100
AcDbLine
 10
-1292.7767889204
 20
584.9849769699
 30
0.0
 11
-1306.7767889204
 21
584.9849769699
 31
0.0
  0
LINE
  5
D5
330
1F
100
AcDbEntity
  8
0
  6
Continuous
 62
     1
370
    25
100
AcDbLine
 10
-1029.2767889204
 20
580.4849769699
 30
0.0
 11
-1029.2767889204
 21
-340.5150230301
 31
0.0
  0
LINE
  5
D6
330
1F
100
AcDbEntity
  8
0
  6
Continuous
 62
     1
370
    25
100
AcDbLine
 10
-1074.2767889204
 20
580.4849769699
 30
0.0
 11
-1074.2767889204
 21
-340.5150230301
 31
0.0
  0
ARC
  5
D7
330
1F
100
AcDbEntity
  8
0
  6
Continuous
 62
     7
370
    25
100
AcDbCircle
 10
-13499.4103961306
 20
-1074.1001175057
 30
0.0
 40
14102.56250000012
100
AcDbArc
 50
0.0
 51
0.9649587404
  0
ARC
  5
D8
330
1F
100
AcDbEntity
  8
0
  6
Continuous
 62
     7
370
    25
100
AcDbCircle
 10
13784.7146038697
 20
-1074.1001175057
 30
0.0
 40
14102.56250000012
100
AcDbArc
 50
179.0350412596
 51
180.0
  0
LINE
  5
D9
330
1F
100
AcDbEntity
  8
0
  6
Continuous
 62
     7
370
    25
100
AcDbLine
 10
-317.8478961304
 20
-1074.1001175057
 30
0.0
 11
-317.8478961304
 21
-1119.1001175057
 31
0.0
  0
LINE
  5
DA
330
1F
100
AcDbEntity
  8
0
  6
Continuous
 62
     7
370
    25
100
AcDbLine
 10
603.1521038696
 20
-1119.1001175057
 30
0.0
 11
603.1521038696
 21
-1074.1001175057
 31
0.0
  0
ARC
  5
DB
330
1F
100
AcDbEntity
  8
0
  6
Continuous
 62
     7
370
    25
100
AcDbCircle
 10
-13499.4103961306
 20
-1119.1001175057
 30
0.0
 40
14102.56250000012
100
AcDbArc
 50
359.0350412596
 51
0.0
  0
ARC
  5
DC
330
1F
100
AcDbEntity
  8
0
  6
Continuous
 62
     7
370
    25
100
AcDbCircle
 10
13784.7146038697
 20
-1119.1001175057
 30
0.0
 40
14102.56250000012
100
AcDbArc
 50
180.0
 51
180.9649587404
  0
CIRCLE
  5
DD
330
1F
100
AcDbEntity
  8
0
  6
Continuous
 62
     7
370
    25
100
AcDbCircle
 10
177.6521038696
 20
-848.6001175057
 30
0.0
 40
7.0
  0
CIRCLE
  5
DE
330
1F
100
AcDbEntity
  8
0
  6
Continuous
 62
     7
370
    25
100
AcDbCircle
 10
177.6521038696
 20
-848.6001175057
 30
0.0
 40
5.0
  0
CIRCLE
  5
DF
330
1F
100
AcDbEntity
  8
0
  6
Continuous
 62
     7
370
    25
100
AcDbCircle
 10
107.6521038696
 20
-848.6001175057
 30
0.0
 40
5.0
  0
CIRCLE
  5
E0
330
1F
100
AcDbEntity
  8
0
  6
Continuous
 62
     7
370
    25
100
AcDbCircle
 10
107.6521038696
 20
-848.6001175057
 30
0.0
 40
7.0
  0
CIRCLE
  5
E1
330
1F
100
AcDbEntity
  8
0
  6
Continuous
 62
     7
370
    25
100
AcDbCircle
 10
177.6521038696
 20
-1344.6001175057
 30
0.0
 40
7.000000000000227
  0
CIRCLE
  5
E2
330
1F
100
AcDbEntity
  8
0
  6
Continuous
 62
     7
370
    25
100
AcDbCircle
 10
177.6521038696
 20
-1344.6001175057
 30
0.0
 40
5.000000000000227
  0
CIRCLE
  5
E3
330
1F
100
AcDbEntity
  8
0
  6
Continuous
 62
     7
370
    25
100
AcDbCircle
 10
107.6521038696
 20
-1344.6001175057
 30
0.0
 40
4.999999999999773
  0
CIRCLE
  5
E4
330
1F
100
AcDbEntity
  8
0
  6
Continuous
 62
     7
370
    25
100
AcDbCircle
 10
107.6521038696
 20
-1344.6001175057
 30
0.0
 40
6.999999999999773
  0
LINE
  5
E5
330
1F
100
AcDbEntity
  8
0
  6
Continuous
 62
     7
370
    25
100
AcDbLine
 10
-315.8478961304
 20
-836.6001175057
 30
0.0
 11
601.1521038696
 21
-836.6001175057
 31
0.0
  0
LINE
  5
E6
330
1F
100
AcDbEntity
  8
0
  6
Continuous
 62
     7
370
    25
100
AcDbLine
 10
-315.8478961304
 20
-1356.6001175057
 30
0.0
 11
601.1521038696
 21
-1356.6001175057
 31
0.0
  0
LINE
  5
E7
330
1F
100
AcDbEntity
  8
0
  6
Continuous
 62
     1
370
    25
100
AcDbLine
 10
-317.8478961304
 20
-1074.1001175057
 30
0.0
 11
603.1521038696
 21
-1074.1001175057
 31
0.0
  0
LINE
  5
E8
330
1F
100
AcDbEntity
  8
0
  6
Continuous
 62
     1
370
    25
100
AcDbLine
 10
-317.8478961304
 20
-1119.1001175057
 30
0.0
 11
603.1521038696
 21
-1119.1001175057
 31
0.0
  0
INSERT
  5
F4
330
1F
100
AcDbEntity
  8
FORMAT
 62
     7
100
AcDbBlockReference
  2
SW_CENTERMARKSYMBOL_1
 10
142.6521038696
 20
-958.6001175057
 30
0.0
  0
INSERT
  5
100
330
1F
100
AcDbEntity
  8
FORMAT
 62
     7
100
AcDbBlockReference
  2
SW_CENTERMARKSYMBOL_2
 10
142.6521038696
 20
-1234.6001175057
 30
0.0
  0
SPLINE
  5
101
330
1F
100
AcDbEntity
  8
0
  6
Continuous
 62
     7
370
    25
100
AcDbSpline
210
0.0
220
0.0
230
1.0
 70
     8
 71
     3
 72
    11
 73
     7
 74
     0
 42
0.00000001
 43
0.00000001
 40
0.0
 40
0.0
 40
0.0
 40
0.0
 40
0.2021571869979976
 40
0.4808903168528691
 40
0.759604207420337
 40
1.0
 40
1.0
 40
1.0
 40
1.0
 10
1070.311027253394
 20
-681.6056167357822
 30
0.0
 10
1058.810670264856
 20
-688.2483375778057
 30
0.0
 10
1031.453689302345
 20
-704.0500024996545
 30
0.0
 10
988.430450298528
 20
-729.3338808433634
 30
0.0
 10
943.3607254689545
 20
-756.0896154064052
 30
0.0
 10
914.1704878779959
 20
-773.7165364166809
 30
0.0
 10
900.6527082466762
 20
-781.8794310506523
 30
0.0
  0
SPLINE
  5
102
330
1F
100
AcDbEntity
  8
0
  6
Continuous
 62
     7
370
    25
100
AcDbSpline
210
0.0
220
0.0
230
1.0
 70
     8
 71
     3
 72
    12
 73
     8
 74
     0
 42
0.00000001
 43
0.00000001
 40
0.0
 40
0.0
 40
0.0
 40
0.0
 40
0.0871407352871224
 40
0.3658997435659035
 40
0.644657949141243
 40
0.9234110878977752
 40
1.0
 40
1.0
 40
1.0
 40
1.0
 10
1359.055357936459
 20
-1575.944999695976
 30
0.0
 10
1364.075196397203
 20
-1573.194471767544
 30
0.0
 10
1385.153255923287
 20
-1561.645137688964
 30
0.0
 10
1422.140532510686
 20
-1541.018282505028
 30
0.0
 10
1469.99700367591
 20
-1514.037305054388
 30
0.0
 10
1506.192942962916
 20
-1493.41412679077
 30
0.0
 10
1526.389252297681
 20
-1481.7056226425
 30
0.0
 10
1530.742278787767
 20
-1479.182021529451
 30
0.0
  0
LINE
  5
103
330
1F
100
AcDbEntity
  8
0
  6
Continuous
 62
     7
370
    25
100
AcDbLine
 10
1102.1151736131
 20
-663.2091333893
 30
0.0
 11
1070.2953684597
 21
-681.5783159053
 31
0.0
  0
LINE
  5
104
330
1F
100
AcDbEntity
  8
0
  6
Continuous
 62
     7
370
    25
100
AcDbLine
 10
1530.7579448386
 20
-1479.2093181579
 30
0.0
 11
1562.577749992
 21
-1460.8401356419
 31
0.0
  0
SPLINE
  5
105
330
1F
100
AcDbEntity
  8
0
  6
Continuous
 62
     7
370
    25
100
AcDbSpline
210
0.0
220
0.0
230
1.0
 70
     8
 71
     3
 72
    12
 73
     8
 74
     0
 42
0.00000001
 43
0.00000001
 40
0.0
 40
0.0
 40
0.0
 40
0.0
 40
0.0871428464218742
 40
0.3659011970313207
 40
0.6446587449442407
 40
0.9234112260415903
 40
0.9999999999999999
 40
0.9999999999999999
 40
0.9999999999999999
 40
0.9999999999999999
 10
1273.81816076125
 20
-566.4732322354042
 30
0.0
 10
1268.798188811537
 20
-569.223833231107
 30
0.0
 10
1247.719995696619
 20
-580.7732401900081
 30
0.0
 10
1210.732585848661
 20
-601.4001688690879
 30
0.0
 10
1162.876114799735
 20
-628.3811465376439
 30
0.0
 10
1126.680173063562
 20
-649.0043261462529
 30
0.0
 10
1106.483861314459
 20
-660.7128317032191
 30
0.0
 10
1102.130832406789
 20
-663.2364342197706
 30
0.0
  0
SPLINE
  5
106
330
1F
100
AcDbEntity
  8
0
  6
Continuous
 62
     7
370
    25
100
AcDbSpline
210
0.0
220
0.0
230
1.0
 70
     8
 71
     3
 72
    11
 73
     7
 74
     0
 42
0.00000001
 43
0.00000001
 40
0.0
 40
0.0
 40
0.0
 40
0.0
 40
0.2021561221904931
 40
0.4808877252273706
 40
0.7596000890853378
 40
1.0
 40
1.0
 40
1.0
 40
1.0
 10
1562.562083941161
 20
-1460.812839013439
 30
0.0
 10
1574.062443345067
 20
-1454.170116764937
 30
0.0
 10
1601.419426715724
 20
-1438.36845042515
 30
0.0
 10
1644.44266827158
 20
-1413.084570897361
 30
0.0
 10
1689.512699602256
 20
-1386.328653201606
 30
0.0
 10
1718.703242586767
 20
-1368.70154725227
 30
0.0
 10
1732.22132773723
 20
-1360.538467884209
 30
0.0
  0
LINE
  5
107
330
1F
100
AcDbEntity
  8
0
  6
Continuous
 62
     7
370
    25
100
AcDbLine
 10
1172.8228148331
 20
-813.5416164684
 30
0.0
 11
1172.8228148331
 21
-807.0394960696
 31
0.0
  0
LINE
  5
108
330
1F
100
AcDbEntity
  8
0
  6
Continuous
 62
     7
370
    25
100
AcDbLine
 10
1158.8228148331
 20
-807.0394960696
 30
0.0
 11
1158.8228148331
 21
-813.0578395133
 31
0.0
  0
LINE
  5
109
330
1F
100
AcDbEntity
  8
0
  6
Continuous
 62
     7
370
    25
100
AcDbLine
 10
1123.3253401501
 20
-784.3577260617
 30
0.0
 11
1123.3253401501
 21
-778.4652121558
 31
0.0
  0
LINE
  5
10A
330
1F
100
AcDbEntity
  8
0
  6
Continuous
 62
     7
370
    25
100
AcDbLine
 10
1109.3253401501
 20
-778.4652121558
 30
0.0
 11
1109.3253401501
 21
-785.0973804909
 31
0.0
  0
LINE
  5
10B
330
1F
100
AcDbEntity
  8
0
  6
Continuous
 62
     7
370
    25
100
AcDbLine
 10
1523.5477783017
 20
-611.2003848186
 30
0.0
 11
1523.5477783017
 21
-604.5702843376
 31
0.0
  0
LINE
  5
10C
330
1F
100
AcDbEntity
  8
0
  6
Continuous
 62
     7
370
    25
100
AcDbLine
 10
1509.5477783017
 20
-604.5702843376
 30
0.0
 11
1509.5477783017
 21
-610.4600373537
 31
0.0
  0
LINE
  5
10D
330
1F
100
AcDbEntity
  8
0
  6
Continuous
 62
     7
370
    25
100
AcDbLine
 10
1474.0503036186
 20
-582.0162003085
 30
0.0
 11
1474.0503036186
 21
-575.9960004238
 31
0.0
  0
LINE
  5
10E
330
1F
100
AcDbEntity
  8
0
  6
Continuous
 62
     7
370
    25
100
AcDbLine
 10
1460.0503036186
 20
-575.9960004238
 30
0.0
 11
1460.0503036186
 21
-582.4989409849
 31
0.0
  0
LWPOLYLINE
  5
10F
330
1F
100
AcDbEntity
  8
0
  6
Continuous
 62
     7
370
    25
100
AcDbPolyline
 90
      228
 70
   128
 43
0.0
 10
808.3803369433
 20
-990.1807206752
 10
808.5045235159
 20
-979.8910752549
 10
808.8769880954
 20
-969.7526954028
 10
809.4974453401
 20
-959.7733480394
 10
810.3654199235
 20
-949.9606782516
 10
811.4802468979
 20
-940.3222034365
 10
812.8410722048
 20
-930.8653075415
 10
814.4468533282
 20
-921.5972354086
 10
816.2963600938
 20
-912.5250872232
 10
818.3881756114
 20
-903.6558130755
 10
820.7206973601
 20
-894.9962076354
 10
823.2921384164
 20
-886.5529049477
 10
826.1005288226
 20
-878.3323733498
 10
829.1437170965
 20
-870.3409105158
 10
832.4193718793
 20
-862.5846386327
 10
835.9249837217
 20
-855.0694997095
 10
839.6578670065
 20
-847.8012510258
 10
843.6151620057
 20
-840.7854607206
 10
847.7938370718
 20
-834.0275035269
 10
852.1906909598
 20
-827.532556654
 10
856.8023552802
 20
-821.3055958217
 10
861.6252970788
 20
-815.3513914477
 10
866.655821544
 20
-809.6745049939
 10
871.8900748368
 20
-804.2792854711
 10
877.3240470435
 20
-799.1698661079
 10
882.9535752476
 20
-794.3501611839
 10
888.7743467187
 20
-789.823863031
 10
894.7819022169
 20
-785.5944392051
 10
900.9716394087
 20
-781.6651298291
 10
907.3388163928
 20
-778.0389451111
 10
913.8785553331
 20
-774.7186630383
 10
920.5858461952
 20
-771.7068272484
 10
927.4555505846
 20
-769.0057450814
 10
934.4824056834
 20
-766.6174858117
 10
941.661028282
 20
-764.543879063
 10
948.9859189031
 20
-762.7865134064
 10
956.4514660148
 20
-761.3467351439
 10
964.0519503294
 20
-760.2256472764
 10
971.7815491852
 20
-759.424108659
 10
979.634341007
 20
-758.9427333433
 10
987.6043098425
 20
-758.7818901065
 10
995.6853499713
 20
-758.941702169
 10
1003.8712705822
 20
-759.4220471004
 10
1012.1558005161
 20
-760.2225569128
 10
1020.53259307
 20
-761.3426183429
 10
1028.9952308596
 20
-762.7813733218
 10
1037.5372307353
 20
-764.5377196325
 10
1046.1520487486
 20
-766.610311754
 10
1054.8330851662
 20
-768.9975618925
 10
1063.5736895252
 20
-771.6976411974
 10
1072.3671657281
 20
-774.7084811625
 10
1081.2067771732
 20
-778.0277752108
 10
1090.0857519145
 20
-781.6529804614
 10
1098.9972878506
 20
-785.5813196775
 10
1107.934557935
 20
-789.8097833943
 10
1116.8907154064
 20
-794.3351322244
 10
1125.8588990344
 20
-799.1538993391
 10
1134.8322383753
 20
-804.2623931251
 10
1143.8038590354
 20
-809.6567000116
 10
1152.7668879381
 20
-815.3326874695
 10
1161.7144585886
 20
-821.2860071764
 10
1170.6397163345
 20
-827.5120983484
 10
1179.5358236174
 20
-834.0061912338
 10
1188.3959652104
 20
-840.7633107673
 10
1197.21335344
 20
-847.7782803811
 10
1205.9812333852
 20
-855.045725971
 10
1214.6928880534
 20
-862.5600800132
 10
1223.3416435251
 20
-870.3155858296
 10
1231.9208740677
 20
-878.3063019977
 10
1240.4240072109
 20
-886.5261069029
 10
1248.8445287819
 20
-894.9687034275
 10
1257.1759878959
 20
-903.6276237753
 10
1265.4120018979
 20
-912.4962344263
 10
1273.5462612528
 20
-921.5677412188
 10
1281.5725343786
 20
-930.8351945541
 10
1289.4846724207
 20
-940.2914947206
 10
1297.2766139621
 20
-949.9293973331
 10
1304.9423896676
 20
-959.7415188822
 10
1312.4761268562
 20
-969.720342391
 10
1319.8720540005
 20
-979.8582231737
 10
1327.1245051482
 20
-990.1473946924
 10
1334.2279242626
 20
-1000.5799745066
 10
1341.1768694791
 20
-1011.1479703119
 10
1347.9660172739
 20
-1021.843286063
 10
1354.590166543
 20
-1032.6577281762
 10
1361.044242586
 20
-1043.5830118058
 10
1367.3233009939
 20
-1054.6107671917
 10
1373.4225314375
 20
-1065.732546071
 10
1379.3372613519
 20
-1076.9398281503
 10
1385.0629595163
 20
-1088.224027633
 10
1390.5952395257
 20
-1099.5764997966
 10
1395.9298631507
 20
-1110.9885476158
 10
1401.0627435849
 20
-1122.4514284247
 10
1405.9899485753
 20
-1133.9563606148
 10
1410.707703435
 20
-1145.4945303626
 10
1415.2123939352
 20
-1157.0570983813
 10
1419.5005690734
 20
-1168.6352066929
 10
1423.5689437178
 20
-1180.2199854143
 10
1427.4144011236
 20
-1191.802559552
 10
1431.0339953211
 20
-1203.3740558016
 10
1434.424953372
 20
-1214.9256093453
 10
1437.5846774943
 20
-1226.4483706432
 10
1440.5107470522
 20
-1237.933512213
 10
1443.2009204104
 20
-1249.3722353923
 10
1445.6531366517
 20
-1260.7557770797
 10
1447.8655171556
 20
-1272.0754164476
 10
1449.8363670375
 20
-1283.3224816234
 10
1451.5641764473
 20
-1294.4883563332
 10
1453.047621726
 20
-1305.5644865019
 10
1454.2855664196
 20
-1316.5423868074
 10
1455.27706215
 20
-1327.4136471802
 10
1456.0213493414
 20
-1338.1699392469
 10
1456.5178578021
 20
-1348.8030227101
 10
1456.7662071616
 20
-1359.3047516616
 10
1456.7662071616
 20
-1369.6670808225
 10
1456.5178578021
 20
-1379.882071707
 10
1456.0213493414
 20
-1389.9418987036
 10
1455.27706215
 20
-1399.8388550706
 10
1454.2855664196
 20
-1409.5653588399
 10
1453.047621726
 20
-1419.1139586256
 10
1451.5641764473
 20
-1428.4773393325
 10
1449.8363670375
 20
-1437.6483277601
 10
1447.8655171556
 20
-1446.6198980976
 10
1445.6531366517
 20
-1455.3851773067
 10
1443.2009204104
 20
-1463.9374503871
 10
1440.5107470522
 20
-1472.2701655203
 10
1437.5846774943
 20
-1480.3769390891
 10
1434.424953372
 20
-1488.2515605682
 10
1431.0339953211
 20
-1495.887997282
 10
1427.4144011236
 20
-1503.2803990257
 10
1423.5689437178
 20
-1510.423102548
 10
1419.5005690734
 20
-1517.3106358886
 10
1415.2123939352
 20
-1523.9377225711
 10
1410.707703435
 20
-1530.2992856448
 10
1405.9899485753
 20
-1536.3904515742
 10
1401.0627435849
 20
-1542.2065539726
 10
1395.9298631507
 20
-1547.7431371771
 10
1390.5952395257
 20
-1552.9959596616
 10
1385.0629595163
 20
-1557.9609972867
 10
1379.3372613519
 20
-1562.6344463824
 10
1373.4225314375
 20
-1567.012726662
 10
1367.3233009939
 20
-1571.0924839648
 10
1361.044242586
 20
-1574.8705928259
 10
1354.590166543
 20
-1578.3441588707
 10
1347.9660172739
 20
-1581.5105210317
 10
1341.176869479
 20
-1584.3672535878
 10
1334.2279242626
 20
-1586.9121680223
 10
1327.1245051482
 20
-1589.1433146994
 10
1319.8720540005
 20
-1591.058984358
 10
1312.4761268562
 20
-1592.6577094209
 10
1304.9423896676
 20
-1593.9382651196
 10
1297.2766139621
 20
-1594.8996704319
 10
1289.4846724207
 20
-1595.5411888341
 10
1281.5725343786
 20
-1595.8623288646
 10
1273.5462612528
 20
-1595.8628445011
 10
1265.4120018979
 20
-1595.5427353486
 10
1257.1759878959
 20
-1594.9022466397
 10
1248.8445287819
 20
-1593.941869047
 10
1240.4240072109
 20
-1592.6623383071
 10
1231.9208740677
 20
-1591.0646346567
 10
1223.3416435251
 20
-1589.149982082
 10
1214.6928880534
 20
-1586.919847381
 10
1205.9812333852
 20
-1584.3759390396
 10
1197.21335344
 20
-1581.5202059226
 10
1188.3959652104
 20
-1578.3548357812
 10
1179.5358236174
 20
-1574.8822535767
 10
1170.6397163345
 20
-1571.1051196225
 10
1161.7144585886
 20
-1567.0263275466
 10
1152.7668879381
 20
-1562.6490020745
 10
1143.8038590354
 20
-1557.9764966352
 10
1134.8322383753
 20
-1553.0123907925
 10
1125.8588990344
 20
-1547.7604875028
 10
1116.8907154064
 20
-1542.2248102012
 10
1107.934557935
 20
-1536.4095997197
 10
1098.9972878506
 20
-1530.319311038
 10
1090.0857519145
 20
-1523.9586098707
 10
1081.2067771732
 20
-1517.332369093
 10
1072.3671657281
 20
-1510.4456650077
 10
1063.5736895252
 20
-1503.3037734558
 10
1054.8330851662
 20
-1495.9121657754
 10
1046.1520487486
 20
-1488.2765046099
 10
1037.5372307353
 20
-1480.4026395695
 10
1028.9952308596
 20
-1472.2966027505
 10
1020.53259307
 20
-1463.9646041139
 10
1012.1558005161
 20
-1455.4130267278
 10
1003.8712705822
 20
-1446.6484218777
 10
995.6853499713
 20
-1437.6775040475
 10
987.6043098425
 20
-1428.5071457756
 10
979.634341007
 20
-1419.1443723898
 10
971.7815491852
 20
-1409.5963566256
 10
964.0519503294
 20
-1399.8704131306
 10
956.4514660148
 20
-1389.9739928616
 10
948.9859189031
 20
-1379.914677376
 10
941.661028282
 20
-1369.7001730236
 10
934.4824056834
 20
-1359.3383050431
 10
927.4555505846
 20
-1348.8370115671
 10
920.5858461952
 20
-1338.2043375407
 10
913.8785553331
 20
-1327.4484285588
 10
907.3388163928
 20
-1316.577524625
 10
900.9716394087
 20
-1305.5999538398
 10
894.7819022169
 20
-1294.52412602
 10
888.7743467186
 20
-1283.3585262565
 10
882.9535752476
 20
-1272.1117084134
 10
877.3240470435
 20
-1260.7922885753
 10
871.8900748368
 20
-1249.4089384466
 10
866.655821544
 20
-1237.9703787081
 10
861.6252970788
 20
-1226.485372336
 10
856.8023552802
 20
-1214.9627178892
 10
852.1906909598
 20
-1203.411242768
 10
847.7938370718
 20
-1191.8397964524
 10
843.6151620057
 20
-1180.2572437217
 10
839.6578670065
 20
-1168.6724578642
 10
835.9249837217
 20
-1157.0943138787
 10
832.4193718793
 20
-1145.5316816756
 10
829.1437170965
 20
-1133.9934192822
 10
826.1005288226
 20
-1122.488366056
 10
823.2921384164
 20
-1111.0253359135
 10
820.7206973601
 20
-1099.6131105776
 10
818.3881756114
 20
-1088.2604328501
 10
816.2963600938
 20
-1076.9759999138
 10
814.4468533282
 20
-1065.76845667
 10
812.8410722048
 20
-1054.6463891155
 10
811.4802468979
 20
-1043.6183177646
 10
810.3654199235
 20
-1032.6926911225
 10
809.4974453402
 20
-1021.8778792121
 10
808.8769880954
 20
-1011.1821671622
 10
808.5045235159
 20
-1000.6137488602
 10
808.3803369433
 20
-990.1807206752
  0
SPLINE
  5
110
330
1F
100
AcDbEntity
  8
0
  6
Continuous
 62
     7
370
    25
100
AcDbSpline
210
0.0
220
0.0
230
1.0
 70
     8
 71
     3
 72
    13
 73
     9
 74
     0
 42
0.00000001
 43
0.00000001
 40
0.0
 40
0.0
 40
0.0
 40
0.0
 40
0.1932557040628765
 40
0.3864992776967187
 40
0.580031661264541
 40
0.7738131149152659
 40
0.9675217458892673
 40
1.0
 40
1.0
 40
1.0
 40
1.0
 10
1117.553870005572
 20
-788.4057304453415
 30
0.0
 10
1116.76390163039
 20
-788.4766817776091
 30
0.0
 10
1115.184014465394
 20
-788.6185799886141
 30
0.0
 10
1112.912119483228
 20
-788.2818107874863
 30
0.0
 10
1111.01539551871
 20
-787.580007666846
 30
0.0
 10
1109.787585519052
 20
-786.5524193299996
 30
0.0
 10
1109.240779665108
 20
-785.6685828155274
 30
0.0
 10
1109.363357817999
 20
-785.1722564080463
 30
0.0
 10
1109.380958857938
 20
-785.1009887252274
 30
0.0
  0
SPLINE
  5
111
330
1F
100
AcDbEntity
  8
0
  6
Continuous
 62
     7
370
    25
100
AcDbSpline
210
0.0
220
0.0
230
1.0
 70
     8
 71
     3
 72
    12
 73
     8
 74
     0
 42
0.00000001
 43
0.00000001
 40
0.0
 40
0.0
 40
0.0
 40
0.0
 40
0.1253793964511157
 40
0.3669287150341445
 40
0.6081936064543079
 40
0.8494835163830373
 40
1.0
 40
1.0
 40
1.0
 40
1.0
 10
1123.225914548252
 20
-784.3573825196659
 30
0.0
 10
1123.243726844681
 20
-784.5802503736545
 30
0.0
 10
1123.295855369984
 20
-785.2324836560052
 30
0.0
 10
1122.520148142414
 20
-786.3108390693128
 30
0.0
 10
1121.04689050052
 20
-787.3959669472392
 30
0.0
 10
1119.264296413999
 20
-788.0980595809837
 30
0.0
 10
1118.028582357426
 20
-788.3203393645581
 30
0.0
 10
1117.553870005572
 20
-788.4057304453415
 30
0.0
  0
SPLINE
  5
112
330
1F
100
AcDbEntity
  8
0
  6
Continuous
 62
     7
370
    25
100
AcDbSpline
210
0.0
220
0.0
230
1.0
 70
     8
 71
     3
 72
    12
 73
     8
 74
     0
 42
0.00000001
 43
0.00000001
 40
0.0
 40
0.0
 40
0.0
 40
0.0
 40
0.2428900559699168
 40
0.4857648805966199
 40
0.7289466293116932
 40
0.9720791260180606
 40
1.0
 40
1.0
 40
1.0
 40
1.0
 10
1164.577502230963
 20
-817.5945961244907
 30
0.0
 10
1163.816111664909
 20
-817.427094986268
 30
0.0
 10
1162.293378278688
 20
-817.0921032136174
 30
0.0
 10
1160.427873174254
 20
-816.0361148808229
 30
0.0
 10
1159.240548274386
 20
-814.7188053013355
 30
0.0
 10
1158.722789298267
 20
-813.6550700609731
 30
0.0
 10
1158.850176907554
 20
-813.1163831785193
 30
0.0
 10
1158.863298948341
 20
-813.0608937060124
 30
0.0
  0
SPLINE
  5
113
330
1F
100
AcDbEntity
  8
0
  6
Continuous
 62
     7
370
    25
100
AcDbSpline
210
0.0
220
0.0
230
1.0
 70
     8
 71
     3
 72
    13
 73
     9
 74
     0
 42
0.00000001
 43
0.00000001
 40
0.0
 40
0.0
 40
0.0
 40
0.0
 40
0.1108298305750979
 40
0.3042032679597088
 40
0.496797045348502
 40
0.6887332609983495
 40
0.8805274389922166
 40
1.0
 40
1.0
 40
1.0
 40
1.0
 10
1172.724752611491
 20
-813.5402455412423
 30
0.0
 10
1172.737726299465
 20
-813.8288714782758
 30
0.0
 10
1172.773336191301
 20
-814.6210855672797
 30
0.0
 10
1171.950716611124
 20
-815.8147355640383
 30
0.0
 10
1170.434684451536
 20
-816.9214635914398
 30
0.0
 10
1168.371604771522
 20
-817.6028497752881
 30
0.0
 10
1166.320966062444
 20
-817.7950451891219
 30
0.0
 10
1165.061080323249
 20
-817.6501939376054
 30
0.0
 10
1164.577502230963
 20
-817.5945961244907
 30
0.0
  0
LWPOLYLINE
  5
114
330
1F
100
AcDbEntity
  8
0
  6
Continuous
 62
     7
370
    25
100
AcDbPolyline
 90
      213
 70
   128
 43
0.0
 10
849.7460836428
 20
-1014.060657946
 10
849.8702978358
 20
-1004.4536366497
 10
850.2428313144
 20
-994.9984681141
 10
850.8633568722
 20
-985.7034570687
 10
851.7313294849
 20
-976.5767675728
 10
852.8459867888
 20
-967.6264158438
 10
854.2063497502
 20
-958.8602632172
 10
855.8112235257
 20
-950.2860092413
 10
857.6591985114
 20
-941.9111849149
 10
859.7486515809
 20
-933.7431460721
 10
862.0777475112
 20
-925.7890669218
 10
864.6444405946
 20
-918.0559337463
 10
867.4464764352
 20
-910.5505387651
 10
870.4813939293
 20
-903.2794741693
 10
873.7465274271
 20
-896.2491263309
 10
877.2390090737
 20
-889.4656701943
 10
880.9557713281
 20
-882.9350638519
 10
884.893549658
 20
-876.6630433116
 10
889.0488854062
 20
-870.6551174581
 10
893.4181288292
 20
-864.916563215
 10
897.9974423028
 20
-859.4524209092
 10
902.7828036922
 20
-854.2674898443
 10
907.7700098855
 20
-849.3663240853
 10
912.9546804849
 20
-844.7532284581
 10
918.3322616544
 20
-840.4322547693
 10
923.8980301192
 20
-836.4071982466
 10
929.6470973147
 20
-832.6815942056
 10
935.5744136802
 20
-829.2587149451
 10
941.6747730937
 20
-826.1415668721
 10
947.9428174449
 20
-823.332887862
 10
954.3730413414
 20
-820.8351448534
 10
960.959796944
 20
-818.6505316812
 10
967.6972989276
 20
-816.7809671502
 10
974.5796295623
 20
-815.2280933494
 10
981.6007439114
 20
-813.9932742096
 10
988.7544751409
 20
-813.077594306
 10
996.0345399354
 20
-812.4818579049
 10
1003.4345440177
 20
-812.2065882575
 10
1010.9479877645
 20
-812.2520271407
 10
1018.5682719155
 20
-812.6181346443
 10
1026.2887033694
 20
-813.3045892062
 10
1034.102501063
 20
-814.3107878948
 10
1042.002801927
 20
-815.6358469386
 10
1049.9826669138
 20
-817.2786025026
 10
1058.0350870929
 20
-819.2376117102
 10
1066.1529898062
 20
-821.5111539107
 10
1074.3292448809
 20
-824.0972321908
 10
1082.5566708913
 20
-826.993575128
 10
1090.8280414674
 20
-830.1976387862
 10
1099.136091641
 20
-833.7066089499
 10
1107.4735242276
 20
-837.5174035958
 10
1115.8330162352
 20
-841.6266756003
 10
1124.2072252964
 20
-846.0308156788
 10
1132.5887961174
 20
-850.7259555562
 10
1140.9703669384
 20
-855.7079713646
 10
1149.3445759995
 20
-860.972487265
 10
1157.7040680071
 20
-866.5148792911
 10
1166.0415005937
 20
-872.3302794104
 10
1174.3495507674
 20
-878.4135798
 10
1182.6209213434
 20
-884.759437333
 10
1190.8483473539
 20
-891.3622782717
 10
1199.0246024285
 20
-898.2163031626
 10
1207.1425051418
 20
-905.3154919306
 10
1215.1949253209
 20
-912.6536091669
 10
1223.1747903078
 20
-920.224209605
 10
1231.0750911717
 20
-928.0206437822
 10
1238.8888888653
 20
-936.0360638801
 10
1246.6093203193
 20
-944.2634297389
 10
1254.2296044702
 20
-952.6955150412
 10
1261.743048217
 20
-961.324913659
 10
1269.1430522993
 20
-970.1440461585
 10
1276.4231170939
 20
-979.1451664578
 10
1283.5768483233
 20
-988.3203686301
 10
1290.5979626725
 20
-997.6615938476
 10
1297.4802933072
 20
-1007.1606374603
 10
1304.2177952907
 20
-1016.8091562018
 10
1310.8045508933
 20
-1026.5986755178
 10
1317.2347747898
 20
-1036.5205970093
 10
1323.502819141
 20
-1046.5662059849
 10
1329.6031785545
 20
-1056.7266791153
 10
1335.53049492
 20
-1066.9930921827
 10
1341.2795621156
 20
-1077.3564279195
 10
1346.8453305804
 20
-1087.8075839284
 10
1352.2229117498
 20
-1098.3373806769
 10
1357.4075823492
 20
-1108.9365695605
 10
1362.3947885425
 20
-1119.5958410257
 10
1367.180149932
 20
-1130.3058327466
 10
1371.7594634055
 20
-1141.0571378485
 10
1376.1287068286
 20
-1151.8403131701
 10
1380.2840425768
 20
-1162.6458875576
 10
1384.2218209066
 20
-1173.4643701834
 10
1387.9385831611
 20
-1184.2862588823
 10
1391.4310648076
 20
-1195.1020484974
 10
1394.6961983054
 20
-1205.9022392289
 10
1397.7311157996
 20
-1216.6773449779
 10
1400.5331516402
 20
-1227.4179016783
 10
1403.0998447235
 20
-1238.1144756092
 10
1405.4289406539
 20
-1248.7576716812
 10
1407.5183937234
 20
-1259.3381416881
 10
1409.366368709
 20
-1269.8465925174
 10
1410.9712424845
 20
-1280.2737943133
 10
1412.331605446
 20
-1290.6105885832
 10
1413.4462627499
 20
-1300.8478962416
 10
1414.3142353626
 20
-1310.9767255851
 10
1414.9347609204
 20
-1320.9881801895
 10
1415.3072943989
 20
-1330.8734667241
 10
1415.431508592
 20
-1340.6239026751
 10
1415.3072943989
 20
-1350.2309239714
 10
1414.9347609204
 20
-1359.686092507
 10
1414.3142353626
 20
-1368.9811035524
 10
1413.4462627499
 20
-1378.1077930483
 10
1412.331605446
 20
-1387.0581447773
 10
1410.9712424845
 20
-1395.8242974039
 10
1409.366368709
 20
-1404.3985513798
 10
1407.5183937234
 20
-1412.7733757062
 10
1405.4289406539
 20
-1420.941414549
 10
1403.0998447235
 20
-1428.8954936993
 10
1400.5331516402
 20
-1436.6286268748
 10
1397.7311157996
 20
-1444.134021856
 10
1394.6961983054
 20
-1451.4050864518
 10
1391.4310648076
 20
-1458.4354342902
 10
1387.9385831611
 20
-1465.2188904268
 10
1384.2218209066
 20
-1471.7494967692
 10
1380.2840425768
 20
-1478.0215173095
 10
1376.1287068286
 20
-1484.0294431629
 10
1371.7594634055
 20
-1489.7679974061
 10
1367.180149932
 20
-1495.2321397119
 10
1362.3947885425
 20
-1500.4170707768
 10
1357.4075823492
 20
-1505.3182365358
 10
1352.2229117498
 20
-1509.931332163
 10
1346.8453305804
 20
-1514.2523058518
 10
1341.2795621156
 20
-1518.2773623745
 10
1335.53049492
 20
-1522.0029664155
 10
1329.6031785545
 20
-1525.425845676
 10
1323.502819141
 20
-1528.542993749
 10
1317.2347747898
 20
-1531.351672759
 10
1310.8045508933
 20
-1533.8494157677
 10
1304.2177952907
 20
-1536.0340289399
 10
1297.4802933071
 20
-1537.9035934709
 10
1290.5979626724
 20
-1539.4564672717
 10
1283.5768483233
 20
-1540.6912864114
 10
1276.4231170939
 20
-1541.6069663151
 10
1269.1430522993
 20
-1542.2027027162
 10
1261.743048217
 20
-1542.4779723636
 10
1254.2296044702
 20
-1542.4325334804
 10
1246.6093203192
 20
-1542.0664259768
 10
1238.8888888653
 20
-1541.3799714149
 10
1231.0750911717
 20
-1540.3737727263
 10
1223.1747903078
 20
-1539.0487136825
 10
1215.1949253209
 20
-1537.4059581185
 10
1207.1425051418
 20
-1535.4469489109
 10
1199.0246024285
 20
-1533.1734067104
 10
1190.8483473539
 20
-1530.5873284303
 10
1182.6209213434
 20
-1527.6909854931
 10
1174.3495507674
 20
-1524.4869218349
 10
1166.0415005937
 20
-1520.9779516712
 10
1157.7040680071
 20
-1517.1671570253
 10
1149.3445759995
 20
-1513.0578850208
 10
1140.9703669384
 20
-1508.6537449423
 10
1132.5887961174
 20
-1503.9586050648
 10
1124.2072252964
 20
-1498.9765892565
 10
1115.8330162352
 20
-1493.712073356
 10
1107.4735242276
 20
-1488.16968133
 10
1099.136091641
 20
-1482.3542812107
 10
1090.8280414673
 20
-1476.2709808211
 10
1082.5566708913
 20
-1469.9251232881
 10
1074.3292448809
 20
-1463.3222823494
 10
1066.1529898062
 20
-1456.4682574585
 10
1058.0350870929
 20
-1449.3690686904
 10
1049.9826669138
 20
-1442.0309514542
 10
1042.002801927
 20
-1434.4603510161
 10
1034.102501063
 20
-1426.6639168389
 10
1026.2887033694
 20
-1418.648496741
 10
1018.5682719155
 20
-1410.4211308822
 10
1010.9479877645
 20
-1401.9890455799
 10
1003.4345440177
 20
-1393.3596469621
 10
996.0345399354
 20
-1384.5405144626
 10
988.7544751409
 20
-1375.5393941633
 10
981.6007439114
 20
-1366.364191991
 10
974.5796295623
 20
-1357.0229667735
 10
967.6972989276
 20
-1347.5239231608
 10
960.959796944
 20
-1337.8754044193
 10
954.3730413414
 20
-1328.0858851033
 10
947.9428174449
 20
-1318.1639636118
 10
941.6747730937
 20
-1308.1183546362
 10
935.5744136802
 20
-1297.9578815058
 10
929.6470973147
 20
-1287.6914684384
 10
923.8980301192
 20
-1277.3281327016
 10
918.3322616544
 20
-1266.8769766927
 10
912.9546804849
 20
-1256.3471799442
 10
907.7700098855
 20
-1245.7479910606
 10
902.7828036922
 20
-1235.0887195954
 10
897.9974423028
 20
-1224.3787278745
 10
893.4181288292
 20
-1213.6274227726
 10
889.0488854061
 20
-1202.8442474509
 10
884.893549658
 20
-1192.0386730635
 10
880.9557713281
 20
-1181.2201904377
 10
877.2390090737
 20
-1170.3983017388
 10
873.7465274271
 20
-1159.5825121237
 10
870.4813939293
 20
-1148.7823213922
 10
867.4464764352
 20
-1138.0072156432
 10
864.6444405946
 20
-1127.2666589428
 10
862.0777475112
 20
-1116.5700850119
 10
859.7486515809
 20
-1105.9268889399
 10
857.6591985114
 20
-1095.346418933
 10
855.8112235257
 20
-1084.8379681037
 10
854.2063497502
 20
-1074.4107663078
 10
852.8459867888
 20
-1064.0739720379
 10
851.7313294849
 20
-1053.8366643795
 10
850.8633568722
 20
-1043.707835036
 10
850.2428313144
 20
-1033.6963804316
 10
849.8702978358
 20
-1023.811093897
 10
849.7460836428
 20
-1014.060657946
  0
LWPOLYLINE
  5
115
330
1F
100
AcDbEntity
  8
0
  6
Continuous
 62
     7
370
    25
100
AcDbPolyline
 90
       30
 70
   128
 43
0.0
 10
1395.2051061899
 20
-1207.6551353521
 10
1393.9842295864
 20
-1206.3823876671
 10
1386.2637981325
 20
-1198.1550218083
 10
1378.6435139815
 20
-1189.722936506
 10
1371.1300702347
 20
-1181.0935378882
 10
1363.7300661524
 20
-1172.2744053887
 10
1356.4500013579
 20
-1163.2732850894
 10
1349.2962701284
 20
-1154.0980829171
 10
1342.2751557793
 20
-1144.7568576996
 10
1335.3928251446
 20
-1135.2578140869
 10
1328.655323161
 20
-1125.6092953454
 10
1322.0685675584
 20
-1115.8197760294
 10
1315.6383436619
 20
-1105.8978545379
 10
1309.3702993107
 20
-1095.8522455623
 10
1303.2699398972
 20
-1085.6917724319
 10
1297.3426235317
 20
-1075.4253593645
 10
1291.5935563362
 20
-1065.0620236277
 10
1286.0277878714
 20
-1054.6108676188
 10
1280.6502067019
 20
-1044.0810708703
 10
1275.4655361025
 20
-1033.4818819866
 10
1270.4783299092
 20
-1022.8226105215
 10
1265.6929685198
 20
-1012.1126188006
 10
1261.1136550462
 20
-1001.3613136987
 10
1256.7444116232
 20
-990.578138377
 10
1252.589075875
 20
-979.7725639896
 10
1248.6512975451
 20
-968.9540813638
 10
1244.9345352907
 20
-958.1321926649
 10
1241.4420536441
 20
-947.3164030498
 10
1238.1769201463
 20
-936.5162123183
 10
1237.6680122619
 20
-934.7633161951
  0
LWPOLYLINE
  5
116
330
1F
100
AcDbEntity
  8
0
  6
Continuous
 62
     7
370
    25
100
AcDbPolyline
 90
       26
 70
   128
 43
0.0
 10
1273.7996106766
 20
-566.4447005181
 10
1275.0343426098
 20
-565.7728360372
 10
1281.5740815501
 20
-562.4525539644
 10
1288.2813724122
 20
-559.4407181745
 10
1295.1510768016
 20
-556.7396360075
 10
1302.1779319004
 20
-554.3513767378
 10
1309.356554499
 20
-552.2777699891
 10
1316.6814451202
 20
-550.5204043325
 10
1324.1469922318
 20
-549.08062607
 10
1331.7474765464
 20
-547.9595382025
 10
1339.4770754022
 20
-547.1579995851
 10
1347.329867224
 20
-546.6766242694
 10
1355.2998360595
 20
-546.5157810326
 10
1363.3808761883
 20
-546.6755930951
 10
1371.5667967992
 20
-547.1559380265
 10
1379.8513267331
 20
-547.9564478389
 10
1388.228119287
 20
-549.076509269
 10
1396.6907570767
 20
-550.5152642479
 10
1405.2327569523
 20
-552.2716105585
 10
1413.8475749656
 20
-554.3442026801
 10
1422.5286113832
 20
-556.7314528186
 10
1431.2692157422
 20
-559.4315321235
 10
1440.0626919451
 20
-562.4423720886
 10
1448.9023033902
 20
-565.7616661369
 10
1457.7812781316
 20
-569.3868713875
 10
1464.3692483883
 20
-572.2631336738
  0
ARC
  5
117
330
1F
100
AcDbEntity
  8
0
  6
Continuous
 62
     7
370
    25
100
AcDbCircle
 10
1290.1371154144
 20
-955.3562616371
 30
0.0
 40
420.8890652308172
100
AcDbArc
 50
57.4626991785
 51
64.0896951956
  0
LWPOLYLINE
  5
118
330
1F
100
AcDbEntity
  8
0
  6
Continuous
 62
     7
370
    25
100
AcDbPolyline
 90
       84
 70
   128
 43
0.0
 10
1523.5477783017
 20
-605.0869602701
 10
1529.4099848056
 20
-609.0198981025
 10
1538.3352425515
 20
-615.2459892745
 10
1547.2313498344
 20
-621.7400821599
 10
1556.0914914274
 20
-628.4972016934
 10
1564.908879657
 20
-635.5121713072
 10
1573.6767596022
 20
-642.7796168971
 10
1582.3884142704
 20
-650.2939709393
 10
1591.0371697421
 20
-658.0494767557
 10
1599.6164002847
 20
-666.0401929238
 10
1608.1195334279
 20
-674.259997829
 10
1616.5400549989
 20
-682.7025943536
 10
1624.8715141129
 20
-691.3615147014
 10
1633.1075281149
 20
-700.2301253524
 10
1641.2417874698
 20
-709.3016321449
 10
1649.2680605957
 20
-718.5690854802
 10
1657.1801986377
 20
-728.0253856467
 10
1664.9721401791
 20
-737.6632882592
 10
1672.6379158846
 20
-747.4754098083
 10
1680.1716530732
 20
-757.4542333171
 10
1687.5675802175
 20
-767.5921140998
 10
1694.8200313652
 20
-777.8812856185
 10
1701.9234504796
 20
-788.3138654327
 10
1708.8723956961
 20
-798.881861238
 10
1715.6615434909
 20
-809.5771769891
 10
1722.28569276
 20
-820.3916191023
 10
1728.739768803
 20
-831.3169027319
 10
1735.0188272109
 20
-842.3446581178
 10
1741.1180576545
 20
-853.4664369971
 10
1747.0327875689
 20
-864.6737190764
 10
1752.7584857333
 20
-875.9579185591
 10
1758.2907657427
 20
-887.3103907227
 10
1763.6253893677
 20
-898.7224385419
 10
1768.7582698019
 20
-910.1853193508
 10
1773.6854747923
 20
-921.6902515409
 10
1778.403229652
 20
-933.2284212887
 10
1782.9079201522
 20
-944.7909893074
 10
1787.1960952904
 20
-956.369097619
 10
1791.2644699348
 20
-967.9538763404
 10
1795.1099273406
 20
-979.5364504781
 10
1798.7295215381
 20
-991.1079467277
 10
1802.120479589
 20
-1002.6595002714
 10
1805.2802037113
 20
-1014.1822615693
 10
1808.2062732692
 20
-1025.6674031391
 10
1810.8964466274
 20
-1037.1061263184
 10
1813.3486628688
 20
-1048.4896680058
 10
1815.5610433726
 20
-1059.8093073737
 10
1817.5318932545
 20
-1071.0563725495
 10
1819.2597026643
 20
-1082.2222472592
 10
1820.743147943
 20
-1093.298377428
 10
1821.9810926366
 20
-1104.2762777335
 10
1822.972588367
 20
-1115.1475381063
 10
1823.7168755584
 20
-1125.903830173
 10
1824.2133840191
 20
-1136.5369136362
 10
1824.4617333786
 20
-1147.0386425877
 10
1824.4617333786
 20
-1157.4009717486
 10
1824.2133840191
 20
-1167.6159626331
 10
1823.7168755584
 20
-1177.6757896297
 10
1822.972588367
 20
-1187.5727459967
 10
1821.9810926366
 20
-1197.299249766
 10
1820.743147943
 20
-1206.8478495517
 10
1819.2597026643
 20
-1216.2112302586
 10
1817.5318932545
 20
-1225.3822186862
 10
1815.5610433726
 20
-1234.3537890237
 10
1813.3486628688
 20
-1243.1190682328
 10
1810.8964466274
 20
-1251.6713413132
 10
1808.2062732692
 20
-1260.0040564464
 10
1805.2802037113
 20
-1268.1108300152
 10
1802.120479589
 20
-1275.9854514943
 10
1798.7295215381
 20
-1283.6218882081
 10
1795.1099273406
 20
-1291.0142899518
 10
1791.2644699348
 20
-1298.1569934741
 10
1787.1960952904
 20
-1305.0445268147
 10
1782.9079201522
 20
-1311.6716134972
 10
1778.403229652
 20
-1318.0331765709
 10
1773.6854747923
 20
-1324.1243425003
 10
1768.7582698019
 20
-1329.9404448987
 10
1763.6253893677
 20
-1335.4770281032
 10
1758.2907657427
 20
-1340.7298505877
 10
1752.7584857333
 20
-1345.6948882128
 10
1747.0327875689
 20
-1350.3683373085
 10
1741.1180576545
 20
-1354.7466175881
 10
1735.0188272109
 20
-1358.8263748909
 10
1732.2299679587
 20
-1360.5551082313
  0
SPLINE
  5
119
330
1F
100
AcDbEntity
  8
0
  6
Continuous
 62
     7
370
    25
100
AcDbSpline
210
0.0
220
0.0
230
1.0
 70
     8
 71
     3
 72
    12
 73
     8
 74
     0
 42
0.00000001
 43
0.00000001
 40
0.0
 40
0.0
 40
0.0
 40
0.0
 40
0.2421105531789143
 40
0.4842220440473237
 40
0.7262249133628146
 40
0.9676291639715858
 40
1.0
 40
1.0
 40
1.0
 40
1.0
 10
1515.353923932054
 20
-614.9832571866353
 30
0.0
 10
1514.590236324458
 20
-614.8088680248618
 30
0.0
 10
1513.062858151517
 20
-614.4600890259089
 30
0.0
 10
1511.184503175525
 20
-613.4044494223685
 30
0.0
 10
1509.980978179642
 20
-612.1055330176929
 30
0.0
 10
1509.453661652297
 20
-611.0553667131488
 30
0.0
 10
1509.579060668019
 20
-610.5259300152675
 30
0.0
 10
1509.593887696387
 20
-610.4633300586935
 30
0.0
  0
SPLINE
  5
11A
330
1F
100
AcDbEntity
  8
0
  6
Continuous
 62
     7
370
    25
100
AcDbSpline
210
0.0
220
0.0
230
1.0
 70
     8
 71
     3
 72
    13
 73
     9
 74
     0
 42
0.00000001
 43
0.00000001
 40
0.0
 40
0.0
 40
0.0
 40
0.0
 40
0.1073891733360913
 40
0.3008122906920276
 40
0.4935965378967312
 40
0.6861713708868139
 40
0.8791319410553852
 40
1.0
 40
1.0
 40
1.0
 40
1.0
 10
1523.449053520108
 20
-611.199362285334
 30
0.0
 10
1523.463848911688
 20
-611.4704249452592
 30
0.0
 10
1523.505292899889
 20
-612.2297098630967
 30
0.0
 10
1522.700707132607
 20
-613.3654180173133
 30
0.0
 10
1521.203667516581
 20
-614.4157634473992
 30
0.0
 10
1519.15378124784
 20
-615.0471140367462
 30
0.0
 10
1517.105438757241
 20
-615.2047689125968
 30
0.0
 10
1515.840935227399
 20
-615.0448488506299
 30
0.0
 10
1515.353923932054
 20
-614.9832571866356
 30
0.0
  0
SPLINE
  5
11B
330
1F
100
AcDbEntity
  8
0
  6
Continuous
 62
     7
370
    25
100
AcDbSpline
210
0.0
220
0.0
230
1.0
 70
     8
 71
     3
 72
    13
 73
     9
 74
     0
 42
0.00000001
 43
0.00000001
 40
0.0
 40
0.0
 40
0.0
 40
0.0
 40
0.1914480660766587
 40
0.3828837715571901
 40
0.574649229188918
 40
0.7669752042601752
 40
0.9597103153013319
 40
1.0
 40
1.0
 40
1.0
 40
1.0
 10
1468.352972753275
 20
-585.8224285393443
 30
0.0
 10
1467.565524270153
 20
-585.882012277829
 30
0.0
 10
1465.990678144497
 20
-586.0011759078511
 30
0.0
 10
1463.714192451579
 20
-585.6526344392415
 30
0.0
 10
1461.804511369147
 20
-584.9574617565908
 30
0.0
 10
1460.547787913281
 20
-583.9558817580321
 30
0.0
 10
1459.977899428316
 20
-583.0825725522363
 30
0.0
 10
1460.095966828243
 20
-582.588179743746
 30
0.0
 10
1460.116380528429
 20
-582.5026998689193
 30
0.0
  0
SPLINE
  5
11C
330
1F
100
AcDbEntity
  8
0
  6
Continuous
 62
     7
370
    25
100
AcDbSpline
210
0.0
220
0.0
230
1.0
 70
     8
 71
     3
 72
    12
 73
     8
 74
     0
 42
0.00000001
 43
0.00000001
 40
0.0
 40
0.0
 40
0.0
 40
0.0
 40
0.1169431183976112
 40
0.3611776605340976
 40
0.6049016073962938
 40
0.8482244327450118
 40
1.0
 40
1.0
 40
1.0
 40
1.0
 10
1473.950568275414
 20
-582.0166298349308
 30
0.0
 10
1473.971212227691
 20
-582.2156711109385
 30
0.0
 10
1474.034970869411
 20
-582.8304081164443
 30
0.0
 10
1473.286595040326
 20
-583.8496031268083
 30
0.0
 10
1471.834971843038
 20
-584.8840761551185
 30
0.0
 10
1470.061477701927
 20
-585.543989690384
 30
0.0
 10
1468.827139246423
 20
-585.7451525720307
 30
0.0
 10
1468.352972753275
 20
-585.8224285393443
 30
0.0
  0
LWPOLYLINE
  5
11D
330
1F
100
AcDbEntity
  8
0
  6
Continuous
 62
     7
370
    25
100
AcDbPolyline
 90
       29
 70
   128
 43
0.0
 10
1170.7725623014
 20
-804.1820676783
 10
1171.7498842277
 20
-804.8895470082
 10
1172.4299981453
 20
-805.7048337615
 10
1172.7788003024
 20
-806.5870460559
 10
1172.7788003024
 20
-807.4919460833
 10
1172.4299981453
 20
-808.3741583778
 10
1171.7498842277
 20
-809.1894451311
 10
1170.7725623014
 20
-809.896924461
 10
1169.5470393687
 20
-810.4611203998
 10
1168.1347682668
 20
-810.8537418072
 10
1166.6065661659
 20
-811.0551010065
 10
1165.0390635004
 20
-811.0551010065
 10
1163.5108613995
 20
-810.8537418072
 10
1162.0985902975
 20
-810.4611203998
 10
1160.8730673648
 20
-809.896924461
 10
1159.8957454385
 20
-809.1894451311
 10
1159.215631521
 20
-808.3741583778
 10
1158.8668293639
 20
-807.4919460833
 10
1158.8668293639
 20
-806.5870460559
 10
1159.215631521
 20
-805.7048337615
 10
1159.8957454385
 20
-804.8895470082
 10
1160.8730673648
 20
-804.1820676783
 10
1162.0985902975
 20
-803.6178717395
 10
1163.5108613995
 20
-803.225250332
 10
1165.0390635004
 20
-803.0238911328
 10
1166.6065661659
 20
-803.0238911328
 10
1168.1347682668
 20
-803.225250332
 10
1169.5470393687
 20
-803.6178717395
 10
1170.7725623014
 20
-804.1820676783
  0
LWPOLYLINE
  5
11E
330
1F
100
AcDbEntity
  8
0
  6
Continuous
 62
     7
370
    25
100
AcDbPolyline
 90
       24
 70
   128
 43
0.0
 10
1169.3583487391
 20
-804.9984757901
 10
1170.1811171833
 20
-805.6248230399
 10
1170.6806502801
 20
-806.3560901167
 10
1170.819899945
 20
-807.1380422866
 10
1170.5885386672
 20
-807.9126857344
 10
1170.0037254544
 20
-808.6225686993
 10
1169.1088332272
 20
-809.2150424094
 10
1167.9702320483
 20
-809.6461658
 10
1166.6723667583
 20
-809.8839644213
 10
1165.3114940884
 20
-809.9108018376
 10
1163.9885437391
 20
-809.7246876404
 10
1162.8016328855
 20
-809.3394250684
 10
1161.8387892761
 20
-808.783587284
 10
1161.1714226164
 20
-808.0983982329
 10
1160.8490284388
 20
-807.3346752525
 10
1160.8955172446
 20
-806.5490601825
 10
1161.3074411715
 20
-805.7998184986
 10
1162.0542497065
 20
-805.142518029
 10
1163.0805554769
 20
-804.6259077426
 10
1164.3102420787
 20
-804.288302261
 10
1165.6521092822
 20
-804.1547402383
 10
1167.0066369355
 20
-804.2351273588
 10
1168.273365919
 20
-804.5235016773
 10
1169.3583487391
 20
-804.9984757901
  0
LWPOLYLINE
  5
11F
330
1F
100
AcDbEntity
  8
0
  6
Continuous
 62
     7
370
    25
100
AcDbPolyline
 90
       29
 70
   128
 43
0.0
 10
1111.3755926818
 20
-781.3226405472
 10
1110.3982707555
 20
-780.6151612173
 10
1109.7181568379
 20
-779.799874464
 10
1109.3693546808
 20
-778.9176621696
 10
1109.3693546808
 20
-778.0127621421
 10
1109.7181568379
 20
-777.1305498477
 10
1110.3982707555
 20
-776.3152630944
 10
1111.3755926818
 20
-775.6077837645
 10
1112.6011156145
 20
-775.0435878257
 10
1114.0133867164
 20
-774.6509664182
 10
1115.5415888174
 20
-774.449607219
 10
1117.1090914828
 20
-774.449607219
 10
1118.6372935838
 20
-774.6509664182
 10
1120.0495646857
 20
-775.0435878257
 10
1121.2750876184
 20
-775.6077837645
 10
1122.2524095447
 20
-776.3152630944
 10
1122.9325234622
 20
-777.1305498477
 10
1123.2813256193
 20
-778.0127621421
 10
1123.2813256193
 20
-778.9176621696
 10
1122.9325234622
 20
-779.799874464
 10
1122.2524095447
 20
-780.6151612173
 10
1121.2750876184
 20
-781.3226405472
 10
1120.0495646857
 20
-781.886836486
 10
1118.6372935838
 20
-782.2794578934
 10
1117.1090914828
 20
-782.4808170927
 10
1115.5415888174
 20
-782.4808170927
 10
1114.0133867164
 20
-782.2794578934
 10
1112.6011156145
 20
-781.886836486
 10
1111.3755926818
 20
-781.3226405472
  0
LWPOLYLINE
  5
120
330
1F
100
AcDbEntity
  8
0
  6
Continuous
 62
     7
370
    25
100
AcDbPolyline
 90
       24
 70
   128
 43
0.0
 10
1112.7898062441
 20
-780.5062324354
 10
1111.9670377999
 20
-779.8798851856
 10
1111.4675047031
 20
-779.1486181088
 10
1111.3282550383
 20
-778.3666659389
 10
1111.559616316
 20
-777.5920224911
 10
1112.1444295288
 20
-776.8821395261
 10
1113.039321756
 20
-776.289665816
 10
1114.1779229349
 20
-775.8585424255
 10
1115.4757882249
 20
-775.6207438042
 10
1116.8366608948
 20
-775.5939063879
 10
1118.1596112441
 20
-775.7800205851
 10
1119.3465220977
 20
-776.1652831571
 10
1120.3093657072
 20
-776.7211209415
 10
1120.9767323668
 20
-777.4063099926
 10
1121.2991265444
 20
-778.170032973
 10
1121.2526377387
 20
-778.955648043
 10
1120.8407138117
 20
-779.7048897269
 10
1120.0939052767
 20
-780.3621901964
 10
1119.0675995063
 20
-780.8788004828
 10
1117.8379129045
 20
-781.2164059644
 10
1116.496045701
 20
-781.3499679871
 10
1115.1415180477
 20
-781.2695808667
 10
1113.8747890642
 20
-780.9812065481
 10
1112.7898062441
 20
-780.5062324354
  0
LWPOLYLINE
  5
121
330
1F
100
AcDbEntity
  8
0
  6
Continuous
 62
     7
370
    25
100
AcDbPolyline
 90
       29
 70
   128
 43
0.0
 10
1511.5980308334
 20
-607.427712729
 10
1510.6207089071
 20
-606.7202333991
 10
1509.9405949895
 20
-605.9049466458
 10
1509.5917928324
 20
-605.0227343513
 10
1509.5917928324
 20
-604.1178343239
 10
1509.9405949895
 20
-603.2356220294
 10
1510.6207089071
 20
-602.4203352762
 10
1511.5980308334
 20
-601.7128559462
 10
1512.8235537661
 20
-601.1486600074
 10
1514.235824868
 20
-600.7560386
 10
1515.7640269689
 20
-600.5546794008
 10
1517.3315296344
 20
-600.5546794008
 10
1518.8597317354
 20
-600.7560386
 10
1520.2720028373
 20
-601.1486600074
 10
1521.49752577
 20
-601.7128559462
 10
1522.4748476963
 20
-602.4203352762
 10
1523.1549616138
 20
-603.2356220294
 10
1523.5037637709
 20
-604.1178343239
 10
1523.5037637709
 20
-605.0227343513
 10
1523.1549616138
 20
-605.9049466458
 10
1522.4748476963
 20
-606.7202333991
 10
1521.49752577
 20
-607.427712729
 10
1520.2720028373
 20
-607.9919086678
 10
1518.8597317354
 20
-608.3845300752
 10
1517.3315296344
 20
-608.5858892744
 10
1515.7640269689
 20
-608.5858892744
 10
1514.235824868
 20
-608.3845300752
 10
1512.8235537661
 20
-607.9919086678
 10
1511.5980308334
 20
-607.427712729
  0
LWPOLYLINE
  5
122
330
1F
100
AcDbEntity
  8
0
  6
Continuous
 62
     7
370
    25
100
AcDbPolyline
 90
       24
 70
   128
 43
0.0
 10
1513.0122443957
 20
-606.6113046172
 10
1512.1894759515
 20
-605.9849573673
 10
1511.6899428547
 20
-605.2536902906
 10
1511.5506931898
 20
-604.4717381207
 10
1511.7820544676
 20
-603.6970946729
 10
1512.3668676804
 20
-602.9872117079
 10
1513.2617599076
 20
-602.3947379978
 10
1514.4003610865
 20
-601.9636146073
 10
1515.6982263765
 20
-601.7258159859
 10
1517.0590990464
 20
-601.6989785696
 10
1518.3820493957
 20
-601.8850927668
 10
1519.5689602493
 20
-602.2703553389
 10
1520.5318038587
 20
-602.8261931233
 10
1521.1991705184
 20
-603.5113821744
 10
1521.521564696
 20
-604.2751051547
 10
1521.4750758903
 20
-605.0607202248
 10
1521.0631519633
 20
-605.8099619086
 10
1520.3163434283
 20
-606.4672623782
 10
1519.2900376579
 20
-606.9838726646
 10
1518.0603510561
 20
-607.3214781462
 10
1516.7184838526
 20
-607.4550401689
 10
1515.3639561993
 20
-607.3746530485
 10
1514.0972272158
 20
-607.0862787299
 10
1513.0122443957
 20
-606.6113046172
  0
LWPOLYLINE
  5
123
330
1F
100
AcDbEntity
  8
0
  6
Continuous
 62
     7
370
    25
100
AcDbPolyline
 90
       29
 70
   128
 43
0.0
 10
1472.0000510869
 20
-573.1385720324
 10
1472.9773730132
 20
-573.8460513624
 10
1473.6574869308
 20
-574.6613381156
 10
1474.0062890879
 20
-575.5435504101
 10
1474.0062890879
 20
-576.4484504375
 10
1473.6574869308
 20
-577.330662732
 10
1472.9773730132
 20
-578.1459494853
 10
1472.0000510869
 20
-578.8534288152
 10
1470.7745281542
 20
-579.417624754
 10
1469.3622570523
 20
-579.8102461614
 10
1467.8340549513
 20
-580.0116053607
 10
1466.2665522859
 20
-580.0116053607
 10
1464.7383501849
 20
-579.8102461614
 10
1463.326079083
 20
-579.417624754
 10
1462.1005561503
 20
-578.8534288152
 10
1461.123234224
 20
-578.1459494853
 10
1460.4431203065
 20
-577.330662732
 10
1460.0943181494
 20
-576.4484504375
 10
1460.0943181494
 20
-575.5435504101
 10
1460.4431203065
 20
-574.6613381156
 10
1461.123234224
 20
-573.8460513624
 10
1462.1005561503
 20
-573.1385720324
 10
1463.326079083
 20
-572.5743760936
 10
1464.7383501849
 20
-572.1817546862
 10
1466.2665522859
 20
-571.980395487
 10
1467.8340549513
 20
-571.980395487
 10
1469.3622570523
 20
-572.1817546862
 10
1470.7745281542
 20
-572.5743760936
 10
1472.0000510869
 20
-573.1385720324
  0
LWPOLYLINE
  5
124
330
1F
100
AcDbEntity
  8
0
  6
Continuous
 62
     7
370
    25
100
AcDbPolyline
 90
       24
 70
   128
 43
0.0
 10
1470.5858375245
 20
-573.9549801443
 10
1471.4086059688
 20
-574.5813273941
 10
1471.9081390656
 20
-575.3125944708
 10
1472.0473887304
 20
-576.0945466407
 10
1471.8160274527
 20
-576.8691900886
 10
1471.2312142399
 20
-577.5790730535
 10
1470.3363220127
 20
-578.1715467636
 10
1469.1977208338
 20
-578.6026701541
 10
1467.8998555438
 20
-578.8404687755
 10
1466.5389828739
 20
-578.8673061918
 10
1465.2160325245
 20
-578.6811919946
 10
1464.029121671
 20
-578.2959294225
 10
1463.0662780615
 20
-577.7400916381
 10
1462.3989114019
 20
-577.054902587
 10
1462.0765172243
 20
-576.2911796067
 10
1462.12300603
 20
-575.5055645366
 10
1462.534929957
 20
-574.7563228528
 10
1463.281738492
 20
-574.0990223832
 10
1464.3080442624
 20
-573.5824120968
 10
1465.5377308642
 20
-573.2448066152
 10
1466.8795980677
 20
-573.1112445925
 10
1468.2341257209
 20
-573.1916317129
 10
1469.5008547045
 20
-573.4800060315
 10
1470.5858375245
 20
-573.9549801443
  0
LWPOLYLINE
  5
125
330
1F
100
AcDbEntity
  8
0
  6
Continuous
 62
     1
370
    25
100
AcDbPolyline
 90
      115
 70
   128
 43
0.0
 10
1070.2953069182
 20
-681.5783514325
 10
1074.2941252137
 20
-679.3487006536
 10
1080.8623908234
 20
-676.0139353438
 10
1087.5989392246
 20
-672.9889617751
 10
1094.4986096091
 20
-670.2760973522
 10
1101.5561162024
 20
-667.8774203757
 10
1108.7660523129
 20
-665.7947684504
 10
1116.1228944744
 20
-664.0297370767
 10
1123.621006677
 20
-662.5836784291
 10
1131.2546446855
 20
-661.4577003201
 10
1139.0179604392
 20
-660.6526653511
 10
1146.9050065328
 20
-660.1691902521
 10
1154.9097407722
 20
-660.007645409
 10
1163.0260308035
 20
-660.1681545798
 10
1171.2476588107
 20
-660.6505947998
 10
1179.5683262797
 20
-661.4545964762
 10
1187.981658823
 20
-662.5795436704
 10
1196.4812110632
 20
-664.0245745707
 10
1205.0604715707
 20
-665.7885821521
 10
1213.7128678524
 20
-667.8702150244
 10
1222.4317713864
 20
-670.2678784678
 10
1231.2105027
 20
-672.979735654
 10
1240.0423364873
 20
-676.0037090541
 10
1248.9205067608
 20
-679.3374820296
 10
1257.8382120354
 20
-682.9785006073
 10
1266.7886205383
 20
-686.9239754361
 10
1275.7648754431
 20
-691.1708839238
 10
1284.7601001227
 20
-695.7159725525
 10
1293.7674034176
 20
-700.5557593711
 10
1302.7798849147
 20
-705.6865366632
 10
1311.7906402342
 20
-711.104373787
 10
1320.7927663186
 20
-716.8051201869
 10
1329.7793667211
 20
-722.784408573
 10
1338.7435568891
 20
-729.037658267
 10
1347.6784694382
 20
-735.5600787114
 10
1356.5772594133
 20
-742.3466731392
 10
1365.4331095326
 20
-749.3922424024
 10
1374.23923541
 20
-756.6913889545
 10
1382.9888907528
 20
-764.238520986
 10
1391.6753725298
 20
-772.0278567077
 10
1400.2920261064
 20
-780.0534287807
 10
1408.8322503429
 20
-788.3090888872
 10
1417.2895026514
 20
-796.7885124414
 10
1425.6573040079
 20
-805.4852034341
 10
1433.9292439162
 20
-814.3924994096
 10
1442.0989853185
 20
-823.5035765698
 10
1450.1602694503
 20
-832.8114550014
 10
1458.1069206354
 20
-842.3090040236
 10
1465.9328510167
 20
-851.9889476508
 10
1473.6320652203
 20
-861.8438701663
 10
1481.1986649485
 20
-871.8662218037
 10
1488.626853498
 20
-882.048324531
 10
1495.9109402014
 20
-892.3823779321
 10
1503.0453447863
 20
-902.8604651827
 10
1510.0246016504
 20
-913.4745591158
 10
1516.8433640485
 20
-924.2165283708
 10
1523.496408189
 20
-935.078143623
 10
1529.9786372354
 20
-946.0510838878
 10
1536.2850852111
 20
-957.1269428959
 10
1542.4109208039
 20
-968.2972355326
 10
1548.3514510668
 20
-979.5534043385
 10
1554.1021250139
 20
-990.8868260653
 10
1559.6585371062
 20
-1002.288818282
 10
1565.0164306271
 20
-1013.7506460263
 10
1570.1717009432
 20
-1025.2635284963
 10
1575.1203986489
 20
-1036.8186457778
 10
1579.858732592
 20
-1048.4071456008
 10
1584.3830727781
 20
-1060.0201501212
 10
1588.6899531514
 20
-1071.6487627221
 10
1592.77607425
 20
-1083.2840748293
 10
1596.638305734
 20
-1094.9171727365
 10
1600.2736887829
 20
-1106.5391444332
 10
1603.6794383629
 20
-1118.1410864329
 10
1606.8529453603
 20
-1129.7141105936
 10
1609.7917785804
 20
-1141.249350927
 10
1612.4936866098
 20
-1152.7379703907
 10
1614.9565995414
 20
-1164.171167658
 10
1617.17863056
 20
-1175.5401838606
 10
1619.158077388
 20
-1186.8363092989
 10
1620.8934235891
 20
-1198.0508901143
 10
1622.3833397305
 20
-1209.1753349185
 10
1623.6266844009
 20
-1220.2011213758
 10
1624.6225050855
 20
-1231.1198027317
 10
1625.3700388949
 20
-1241.9230142839
 10
1625.8687131504
 20
-1252.6024797906
 10
1626.1181458223
 20
-1263.1500178106
 10
1626.1181458223
 20
-1273.5575479711
 10
1625.8687131504
 20
-1283.8170971583
 10
1625.3700388949
 20
-1293.9208056249
 10
1624.6225050855
 20
-1303.860933012
 10
1623.6266844009
 20
-1313.6298642786
 10
1622.3833397305
 20
-1323.2201155356
 10
1620.8934235891
 20
-1332.6243397789
 10
1619.158077388
 20
-1341.835332518
 10
1617.17863056
 20
-1350.8460372953
 10
1614.9565995414
 20
-1359.6495510921
 10
1612.4936866098
 20
-1368.2391296167
 10
1609.7917785804
 20
-1376.6081924713
 10
1606.8529453603
 20
-1384.750328193
 10
1603.6794383629
 20
-1392.6592991661
 10
1600.2736887829
 20
-1400.3290463998
 10
1596.638305734
 20
-1407.7536941708
 10
1592.77607425
 20
-1414.9275545241
 10
1588.6899531514
 20
-1421.8451316307
 10
1584.3830727781
 20
-1428.5011259977
 10
1579.858732592
 20
-1434.8904385287
 10
1575.1203986489
 20
-1441.0081744295
 10
1570.1717009432
 20
-1446.8496469583
 10
1565.0164306271
 20
-1452.4103810164
 10
1559.6585371062
 20
-1457.6861165761
 10
1554.1021250139
 20
-1462.6728119444
 10
1548.3514510668
 20
-1467.3666468595
 10
1542.4109208039
 20
-1471.7640254173
 10
1536.2850852111
 20
-1475.8615788261
 10
1530.7579905669
 20
-1479.2092917595
  0
LWPOLYLINE
  5
126
330
1F
100
AcDbEntity
  8
0
  6
Continuous
 62
     1
370
    25
100
AcDbPolyline
 90
      115
 70
   128
 43
0.0
 10
1102.1151736131
 20
-663.2091333893
 10
1106.1139303671
 20
-660.9795181376
 10
1112.6821959768
 20
-657.6447528278
 10
1119.418744378
 20
-654.6197792591
 10
1126.3184147625
 20
-651.9069148362
 10
1133.3759213558
 20
-649.5082378597
 10
1140.5858574663
 20
-647.4255859343
 10
1147.9426996278
 20
-645.6605545606
 10
1155.4408118304
 20
-644.2144959131
 10
1163.0744498389
 20
-643.088517804
 10
1170.8377655926
 20
-642.283482835
 10
1178.7248116862
 20
-641.8000077361
 10
1186.7295459256
 20
-641.6384628929
 10
1194.8458359569
 20
-641.7989720637
 10
1203.0674639641
 20
-642.2814122838
 10
1211.3881314331
 20
-643.0854139602
 10
1219.8014639764
 20
-644.2103611544
 10
1228.3010162166
 20
-645.6553920547
 10
1236.8802767241
 20
-647.4193996361
 10
1245.5326730058
 20
-649.5010325084
 10
1254.2515765398
 20
-651.8986959518
 10
1263.0303078534
 20
-654.610553138
 10
1271.8621416407
 20
-657.6345265381
 10
1280.7403119142
 20
-660.9682995135
 10
1289.6580171888
 20
-664.6093180913
 10
1298.6084256917
 20
-668.5547929201
 10
1307.5846805965
 20
-672.8017014078
 10
1316.5799052761
 20
-677.3467900365
 10
1325.587208571
 20
-682.1865768551
 10
1334.5996900681
 20
-687.3173541472
 10
1343.6104453876
 20
-692.735191271
 10
1352.612571472
 20
-698.4359376709
 10
1361.5991718745
 20
-704.415226057
 10
1370.5633620425
 20
-710.668475751
 10
1379.4982745916
 20
-717.1908961954
 10
1388.3970645667
 20
-723.9774906232
 10
1397.252914686
 20
-731.0230598864
 10
1406.0590405634
 20
-738.3222064385
 10
1414.8086959062
 20
-745.86933847
 10
1423.4951776832
 20
-753.6586741917
 10
1432.1118312598
 20
-761.6842462647
 10
1440.6520554963
 20
-769.9399063712
 10
1449.1093078048
 20
-778.4193299254
 10
1457.4771091613
 20
-787.1160209181
 10
1465.7490490696
 20
-796.0233168936
 10
1473.9187904719
 20
-805.1343940538
 10
1481.9800746037
 20
-814.4422724854
 10
1489.9267257888
 20
-823.9398215076
 10
1497.7526561701
 20
-833.6197651348
 10
1505.4518703737
 20
-843.4746876502
 10
1513.0184701019
 20
-853.4970392877
 10
1520.4466586514
 20
-863.679142015
 10
1527.7307453548
 20
-874.0131954161
 10
1534.8651499397
 20
-884.4912826667
 10
1541.8444068038
 20
-895.1053765998
 10
1548.6631692019
 20
-905.8473458548
 10
1555.3162133424
 20
-916.7089611069
 10
1561.7984423888
 20
-927.6819013718
 10
1568.1048903645
 20
-938.7577603799
 10
1574.2307259573
 20
-949.9280530166
 10
1580.1712562202
 20
-961.1842218225
 10
1585.9219301673
 20
-972.5176435493
 10
1591.4783422596
 20
-983.919635766
 10
1596.8362357805
 20
-995.3814635102
 10
1601.9915060966
 20
-1006.8943459803
 10
1606.9402038023
 20
-1018.4494632618
 10
1611.6785377454
 20
-1030.0379630848
 10
1616.2028779315
 20
-1041.6509676052
 10
1620.5097583048
 20
-1053.279580206
 10
1624.5958794034
 20
-1064.9148923133
 10
1628.4581108874
 20
-1076.5479902204
 10
1632.0934939363
 20
-1088.1699619171
 10
1635.4992435163
 20
-1099.7719039169
 10
1638.6727505137
 20
-1111.3449280776
 10
1641.6115837338
 20
-1122.880168411
 10
1644.3134917632
 20
-1134.3687878747
 10
1646.7764046948
 20
-1145.8019851419
 10
1648.9984357134
 20
-1157.1710013446
 10
1650.9778825414
 20
-1168.4671267829
 10
1652.7132287425
 20
-1179.6817075983
 10
1654.2031448839
 20
-1190.8061524025
 10
1655.4464895543
 20
-1201.8319388598
 10
1656.4423102389
 20
-1212.7506202156
 10
1657.1898440483
 20
-1223.5538317679
 10
1657.6885183038
 20
-1234.2332972746
 10
1657.9379509757
 20
-1244.7808352946
 10
1657.9379509757
 20
-1255.1883654551
 10
1657.6885183038
 20
-1265.4479146422
 10
1657.1898440483
 20
-1275.5516231088
 10
1656.4423102389
 20
-1285.491750496
 10
1655.4464895543
 20
-1295.2606817626
 10
1654.2031448839
 20
-1304.8509330196
 10
1652.7132287425
 20
-1314.2551572629
 10
1650.9778825414
 20
-1323.466150002
 10
1648.9984357134
 20
-1332.4768547793
 10
1646.7764046948
 20
-1341.2803685761
 10
1644.3134917632
 20
-1349.8699471007
 10
1641.6115837338
 20
-1358.2390099553
 10
1638.6727505137
 20
-1366.381145677
 10
1635.4992435163
 20
-1374.2901166501
 10
1632.0934939363
 20
-1381.9598638838
 10
1628.4581108874
 20
-1389.3845116548
 10
1624.5958794034
 20
-1396.5583720081
 10
1620.5097583048
 20
-1403.4759491147
 10
1616.2028779315
 20
-1410.1319434817
 10
1611.6785377454
 20
-1416.5212560127
 10
1606.9402038023
 20
-1422.6389919134
 10
1601.9915060966
 20
-1428.4804644423
 10
1596.8362357805
 20
-1434.0411985004
 10
1591.4783422596
 20
-1439.3169340601
 10
1585.9219301673
 20
-1444.3036294284
 10
1580.1712562202
 20
-1448.9974643435
 10
1574.2307259572
 20
-1453.3948429013
 10
1568.1048903645
 20
-1457.4923963101
 10
1562.577749992
 20
-1460.8401356419
  0
ENDSEC
  0
SECTION
  2
OBJECTS
  0
DICTIONARY
  5
C
330
0
100
AcDbDictionary
281
     1
  3
ACAD_GROUP
350
D
  3
ACAD_LAYOUT
350
1A
  3
ACAD_MLINESTYLE
350
17
  3
ACAD_PLOTSETTINGS
350
19
  3
ACAD_PLOTSTYLENAME
350
E
  3
ACAD_SCALELIST
350
47
  3
DWGPROPS
350
127
  0
DICTIONARY
  5
D
102
{ACAD_REACTORS
330
C
102
}
330
C
100
AcDbDictionary
281
     1
  0
DICTIONARY
  5
1A
102
{ACAD_REACTORS
330
C
102
}
330
C
100
AcDbDictionary
281
     1
  3
Layout1
350
1E
  3
Layout2
350
26
  3
Model
350
22
  0
DICTIONARY
  5
17
102
{ACAD_REACTORS
330
C
102
}
330
C
100
AcDbDictionary
281
     1
  3
Standard
350
18
  0
DICTIONARY
  5
19
102
{ACAD_REACTORS
330
C
102
}
330
C
100
AcDbDictionary
281
     1
  0
ACDBDICTIONARYWDFLT
  5
E
102
{ACAD_REACTORS
330
C
102
}
330
C
100
AcDbDictionary
281
     1
  3
Normal
350
F
100
AcDbDictionaryWithDefault
340
F
  0
DICTIONARY
  5
47
102
{ACAD_REACTORS
330
C
102
}
330
C
100
AcDbDictionary
281
     1
  3
A0
350
48
  3
A1
350
49
  3
A2
350
4A
  3
A3
350
4B
  3
A4
350
4C
  3
A5
350
4D
  3
A6
350
4E
  3
A7
350
4F
  3
A8
350
50
  3
A9
350
51
  3
B0
350
52
  3
B1
350
53
  3
B2
350
54
  3
B3
350
55
  3
B4
350
56
  3
B5
350
57
  3
B6
350
58
  3
B7
350
59
  3
B8
350
5A
  3
B9
350
5B
  3
C0
350
5C
  3
C1
350
5D
  3
C2
350
5E
  3
C3
350
5F
  3
C4
350
60
  3
C5
350
61
  3
C6
350
62
  3
C7
350
63
  3
C8
350
64
  3
C9
350
65
  3
D0
350
66
  3
D1
350
67
  3
D2
350
68
  0
XRECORD
  5
127
102
{ACAD_REACTORS
330
C
102
}
330
C
100
AcDbXrecord
280
     1
  1
DWGPROPS COOKIE
  2

  3

  4

  6

  7

  8
b.kav
  9

300
=
301
=
302
=
303
=
304
=
305
=
306
=
307
=
308
=
309
=
 40
0.0
 41
2459741.476753148
 42
2459741.476753322
  1

 90
        0
  0
LAYOUT
  5
1E
102
{ACAD_REACTORS
330
1A
102
}
330
1A
100
AcDbPlotSettings
  1

  2
none_device
  4

  6

 40
0.0
 41
0.0
 42
0.0
 43
0.0
 44
0.0
 45
0.0
 46
0.0
 47
0.0
 48
0.0
 49
0.0
140
0.0
141
0.0
142
1.0
143
1.0
 70
   688
 72
     1
 73
     0
 74
     5
  7

 75
    16
147
1.0
148
0.0
149
0.0
100
AcDbLayout
  1
Layout1
 70
     1
 71
     1
 10
0.0
 20
0.0
 11
420.0
 21
297.0
 12
0.0
 22
0.0
 32
0.0
 14
1.0000000000E+20
 24
1.0000000000E+20
 34
1.0000000000E+20
 15
-1.0000000000E+20
 25
-1.0000000000E+20
 35
-1.0000000000E+20
146
0.0
 13
0.0
 23
0.0
 33
0.0
 16
1.0
 26
0.0
 36
0.0
 17
0.0
 27
1.0
 37
0.0
 76
     0
330
1B
  0
LAYOUT
  5
26
102
{ACAD_REACTORS
330
1A
102
}
330
1A
100
AcDbPlotSettings
  1

  2
none_device
  4

  6

 40
0.0
 41
0.0
 42
0.0
 43
0.0
 44
0.0
 45
0.0
 46
0.0
 47
0.0
 48
0.0
 49
0.0
140
0.0
141
0.0
142
1.0
143
1.0
 70
   688
 72
     1
 73
     0
 74
     5
  7

 75
    16
147
1.0
148
0.0
149
0.0
100
AcDbLayout
  1
Layout2
 70
     1
 71
     2
 10
0.0
 20
0.0
 11
0.0
 21
0.0
 12
0.0
 22
0.0
 32
0.0
 14
0.0
 24
0.0
 34
0.0
 15
0.0
 25
0.0
 35
0.0
146
0.0
 13
0.0
 23
0.0
 33
0.0
 16
1.0
 26
0.0
 36
0.0
 17
0.0
 27
1.0
 37
0.0
 76
     0
330
23
  0
LAYOUT
  5
22
102
{ACAD_REACTORS
330
1A
102
}
330
1A
100
AcDbPlotSettings
  1

  2
none_device
  4
Letter_(8.50_x_11.00_Inches)
  6

 40
6.35
 41
6.35
 42
6.35000508
 43
6.35000508
 44
215.9
 45
279.4
 46
0.0
 47
0.0
 48
0.0
 49
0.0
140
0.0
141
0.0
142
1.0
143
1.0
 70
  1712
 72
     1
 73
     0
 74
     0
  7

 75
     0
147
1.0
148
0.0
149
0.0
100
AcDbLayout
  1
Model
 70
     1
 71
     0
 10
0.0
 20
0.0
 11
279.4
 21
215.9
 12
0.0
 22
0.0
 32
0.0
 14
0.0
 24
0.0
 34
0.0
 15
279.4
 25
215.9
 35
0.0
146
0.0
 13
0.0
 23
0.0
 33
0.0
 16
1.0
 26
0.0
 36
0.0
 17
0.0
 27
1.0
 37
0.0
 76
     0
330
1F
331
29
  0
MLINESTYLE
  5
18
102
{ACAD_REACTORS
330
17
102
}
330
17
100
AcDbMlineStyle
  2
Standard
 70
     0
  3

 62
   256
 51
90.0
 52
90.0
 71
     2
 49
0.5
 62
   256
  6
BYLAYER
 49
-0.5
 62
   256
  6
BYLAYER
  0
ACDBPLACEHOLDER
  5
F
102
{ACAD_REACTORS
330
E
102
}
330
E
  0
SCALE
  5
48
102
{ACAD_REACTORS
330
47
102
}
330
47
100
AcDbScale
 70
     0
300
1:1
140
1.0
141
1.0
290
     1
  0
SCALE
  5
49
102
{ACAD_REACTORS
330
47
102
}
330
47
100
AcDbScale
 70
     0
300
1:2
140
1.0
141
2.0
290
     0
  0
SCALE
  5
4A
102
{ACAD_REACTORS
330
47
102
}
330
47
100
AcDbScale
 70
     0
300
1:4
140
1.0
141
4.0
290
     0
  0
SCALE
  5
4B
102
{ACAD_REACTORS
330
47
102
}
330
47
100
AcDbScale
 70
     0
300
1:5
140
1.0
141
5.0
290
     0
  0
SCALE
  5
4C
102
{ACAD_REACTORS
330
47
102
}
330
47
100
AcDbScale
 70
     0
300
1:8
140
1.0
141
8.0
290
     0
  0
SCALE
  5
4D
102
{ACAD_REACTORS
330
47
102
}
330
47
100
AcDbScale
 70
     0
300
1:10
140
1.0
141
10.0
290
     0
  0
SCALE
  5
4E
102
{ACAD_REACTORS
330
47
102
}
330
47
100
AcDbScale
 70
     0
300
1:16
140
1.0
141
16.0
290
     0
  0
SCALE
  5
4F
102
{ACAD_REACTORS
330
47
102
}
330
47
100
AcDbScale
 70
     0
300
1:20
140
1.0
141
20.0
290
     0
  0
SCALE
  5
50
102
{ACAD_REACTORS
330
47
102
}
330
47
100
AcDbScale
 70
     0
300
1:30
140
1.0
141
30.0
290
     0
  0
SCALE
  5
51
102
{ACAD_REACTORS
330
47
102
}
330
47
100
AcDbScale
 70
     0
300
1:40
140
1.0
141
40.0
290
     0
  0
SCALE
  5
52
102
{ACAD_REACTORS
330
47
102
}
330
47
100
AcDbScale
 70
     0
300
1:50
140
1.0
141
50.0
290
     0
  0
SCALE
  5
53
102
{ACAD_REACTORS
330
47
102
}
330
47
100
AcDbScale
 70
     0
300
1:100
140
1.0
141
100.0
290
     0
  0
SCALE
  5
54
102
{ACAD_REACTORS
330
47
102
}
330
47
100
AcDbScale
 70
     0
300
2:1
140
2.0
141
1.0
290
     0
  0
SCALE
  5
55
102
{ACAD_REACTORS
330
47
102
}
330
47
100
AcDbScale
 70
     0
300
4:1
140
4.0
141
1.0
290
     0
  0
SCALE
  5
56
102
{ACAD_REACTORS
330
47
102
}
330
47
100
AcDbScale
 70
     0
300
8:1
140
8.0
141
1.0
290
     0
  0
SCALE
  5
57
102
{ACAD_REACTORS
330
47
102
}
330
47
100
AcDbScale
 70
     0
300
10:1
140
10.0
141
1.0
290
     0
  0
SCALE
  5
58
102
{ACAD_REACTORS
330
47
102
}
330
47
100
AcDbScale
 70
     0
300
100:1
140
100.0
141
1.0
290
     0
  0
SCALE
  5
59
102
{ACAD_REACTORS
330
47
102
}
330
47
100
AcDbScale
 70
     0
300
1/128" = 1'-0"
140
0.0078125
141
12.0
290
     0
  0
SCALE
  5
5A
102
{ACAD_REACTORS
330
47
102
}
330
47
100
AcDbScale
 70
     0
300
1/64" = 1'-0"
140
0.015625
141
12.0
290
     0
  0
SCALE
  5
5B
102
{ACAD_REACTORS
330
47
102
}
330
47
100
AcDbScale
 70
     0
300
1/32" = 1'-0"
140
0.03125
141
12.0
290
     0
  0
SCALE
  5
5C
102
{ACAD_REACTORS
330
47
102
}
330
47
100
AcDbScale
 70
     0
300
1/16" = 1'-0"
140
0.0625
141
12.0
290
     0
  0
SCALE
  5
5D
102
{ACAD_REACTORS
330
47
102
}
330
47
100
AcDbScale
 70
     0
300
3/32" = 1'-0"
140
0.09375
141
12.0
290
     0
  0
SCALE
  5
5E
102
{ACAD_REACTORS
330
47
102
}
330
47
100
AcDbScale
 70
     0
300
1/8" = 1'-0"
140
0.125
141
12.0
290
     0
  0
SCALE
  5
5F
102
{ACAD_REACTORS
330
47
102
}
330
47
100
AcDbScale
 70
     0
300
3/16" = 1'-0"
140
0.1875
141
12.0
290
     0
  0
SCALE
  5
60
102
{ACAD_REACTORS
330
47
102
}
330
47
100
AcDbScale
 70
     0
300
1/4" = 1'-0"
140
0.25
141
12.0
290
     0
  0
SCALE
  5
61
102
{ACAD_REACTORS
330
47
102
}
330
47
100
AcDbScale
 70
     0
300
3/8" = 1'-0"
140
0.375
141
12.0
290
     0
  0
SCALE
  5
62
102
{ACAD_REACTORS
330
47
102
}
330
47
100
AcDbScale
 70
     0
300
1/2" = 1'-0"
140
0.5
141
12.0
290
     0
  0
SCALE
  5
63
102
{ACAD_REACTORS
330
47
102
}
330
47
100
AcDbScale
 70
     0
300
3/4" = 1'-0"
140
0.75
141
12.0
290
     0
  0
SCALE
  5
64
102
{ACAD_REACTORS
330
47
102
}
330
47
100
AcDbScale
 70
     0
300
1" = 1'-0"
140
1.0
141
12.0
290
     0
  0
SCALE
  5
65
102
{ACAD_REACTORS
330
47
102
}
330
47
100
AcDbScale
 70
     0
300
1-1/2" = 1'-0"
140
1.5
141
12.0
290
     0
  0
SCALE
  5
66
102
{ACAD_REACTORS
330
47
102
}
330
47
100
AcDbScale
 70
     0
300
3" = 1'-0"
140
3.0
141
12.0
290
     0
  0
SCALE
  5
67
102
{ACAD_REACTORS
330
47
102
}
330
47
100
AcDbScale
 70
     0
300
6" = 1'-0"
140
6.0
141
12.0
290
     0
  0
SCALE
  5
68
102
{ACAD_REACTORS
330
47
102
}
330
47
100
AcDbScale
 70
     0
300
1'-0" = 1'-0"
140
12.0
141
12.0
290
     0
  0
ENDSEC
  0
EOF
